» » »

Wasteland Bass tabs (ver.2)

Artists:  A B C D E F G H I J K L M N O P Q R S T U V W X Y Z # 

Wasteland Bass tabs (ver.2)

10 Years
Rating:
0/5 (0 votes)

Hard to play? Try these video lessons and learn fast.
                This song is fairly simple on the bass.

Listen to the song for the beat.  Otherwise its simple.


Inro(after guitar and vocals intro)


G:----------------------------|
D:----------------------------|
A:--------2-----------2-------|
D:-0--------2-----------------|

Verse(played softly)


G:-----------------------------------------------------------------|
D:-4-4-4-4-4-4-4-4-4-4-4-4-2-2-2-2-4-4-4-4-4-4-4-4-4-4-4-4-2-2-2-2-|
A:-----------------------------------------------------------------|
D:-----------------------------------------------------------------|

G:-----------------------------------------------------------------|
D:-0-0-0-0-0-0-0-0-0-0-0-0-0-0-0-0-------------------------2-2-2-2-|
A:---------------------------------4-4-4-4-4-4-4-4-4-4-4-4---------|
D:-----------------------------------------------------------------|

Chorus 


G:----------------------------|
D:----------------------------|
A:--------2---------2---------|
D:-0--------2----------4------|

Break(mute between each of the 4ths)


G:-------------------------------------------|
D:-------------------------------------------|
A:-------------------------------------------|
D:-4-4--4-4--0-0-0-0-0-0-0-0-2-2-2-2-2-2-2-2-|

End part


G:-------------------------|
D:-------------------------|
A:---------2---------------|
D:-0---------2---------4-4-|



The song is played like this:


Intro
Verse(x4)
Chorus(x2)
Verse(x2)
Chorus(x2)
Break(x4)
Chorus(x4)
End
            
Hard to play? Try these video lessons and learn fast. | Correct




comments powered by Disqus
↑ Back to top | Tablatures and chords are parodies/interpretations of the original songs. You may use it for private study, scholarship, research or language learning purposes only