» » »

10 Years, Wasteland Tabs (ver.3)

Artists:  A B C D E F G H I J K L M N O P Q R S T U V W X Y Z # 

Wasteland Tabs (ver.3)

10 Years Tabs
 Rating:
4/5 (4 votes)
Wasteland lessons Tabs too difficult? Try these video lessons and learn fast
1
                Song :Wasteland
Band:Ten Years
Album:Killing All That Holds You
Tuning:DADGBe
Ok this is a new awesome band from tennesee i saw theam with static-X and skindred they 
Here it is.......Wasteland
Intro
|--------------------------------------------------------------|
|--------------------------------------------------------------|
|-----------6---------------6---------------6------------------|
|-------------------------------------------4------------------|
|-------------------------------------------4------------------|
|-----4------------2/4----------------------4------------------|
"change my attempt......

|--------------------------------------------------------------|
|--------------------------------------------------------------|
|--------6-6-----------------0---------6-6---------------------|
|--4-----x-x--hold chord-----0----2----x-x--hold chord4-4-4----|
|--4-----4-4-----------------0----2----4-4------------2-2-2----|
|--4------------------------------2----------------------------|

verse1 bth gtrs all p.m.
|-------------------------------------------------------------- play all--| 3x
|-------------------------------------------------------------------------|and play
|---------6-6-6-6-------------6-6-6-6-------------6-6-6-6-----------------| underlined prt
|-4-4-4-4-x-x-x-x-----2-2-2-2-x-x-x-x----0-0-0-0--x-x-x-x-----------------| on 4th time
|-4-4-4-4-4-4-4-4-x4--2-2-2-2-4-4-4-4-x2-0-0-0-0--4-4-4-4-x---------------|2 once
|-4-4-4-4-------------2-2-2-2------------0-0-0-0--------------------------|
___________________

|--------------------------------------------------------------|
|--------------------------------------------------------------|
|--------6-6-----------------0---------6-6---------------------|
|--4-----x-x--hold chord-----0----2----x-x--hold chord4-4-4----|
|--4-----4-4-----------------0----2----4-4------------2-2-2----|
|--4------------------------------2----------------------------|
chorus
|---------------------------------------------------------------|
|---------------------------------------------------------------|
|-6----------------6---------9----11--9-------------------------|
|-4----------------x---------x-----x--x-------------------------|
|-4----------------4---------7-----9--7-------------------------|
|-4-------------------------------------------------------------|
"change my attempt,good intentions"

|--------------------------------------------------------------|
|--------------------------------------------------------------|
|--------6-6-----------------0---------6-6---------------------|
|--4-----x-x--hold chord-----0----2----x-x--hold chord4-4-4----|
|--4-----4-4-----------------0----2----4-4------------2-2-2----|
|--4------------------------------2----------------------------|
"should I Could I"
|---------------------------------------------------------------|
|---------------------------------------------------------------|
|-6----------------6---------9----11--9-------------------------|
|-4----------------x---------x-----x--x-------------------------|
|-4----------------4---------7-----9--7-------------------------|
|-4-------------------------------------------------------------|
"here we are with,your obsession

|--------------------------------------------------------------|
|--------------------------------------------------------------|
|--------6-6-----------------0---------6-6---------------------|
|--4-----x-x--hold chord-----0----2----x-x--hold chord4-4-4----|
|--4-----4-4-----------------0----2----4-4------------2-2-2----|
|--4------------------------------2----------------------------|
"Should I Could I"

verse 2 bth gtrs all p.m.
|---------------------------------------------------------------| play all once
|---------------------------------------------------------------|and play
|---------6-6-6-6--------------6-6-6-6------------6-6-6-6-------| underlined prt
|-4-4-4-4-x-x-x-x------2-2-2-2-x-x-x-x----0-0-0-0-x-x-x-x-------| afterward
|-4-4-4-4-4-4-4-4-x4---2-2-2-2-4-4-4-4-x2-0-0-0-0-4-4-4-4-x-----|2 once
|-4-4-4-4--------------2-2-2-2------------0-0-0-0---------------|


|--------------------------------------------------------------|
|--------------------------------------------------------------|
|--------6-6-----------------0---------6-6---------------------|
|--4-----x-x--hold chord-----0----2----x-x--hold chord4-4-4----|
|--4-----4-4-----------------0----2----4-4------------2-2-2----|
|--4------------------------------2----------------------------|


chorus
|---------------------------------------------------------------|
|---------------------------------------------------------------|
|-6----------------6---------9----11--9-------------------------|
|-4----------------x---------x-----x--x-------------------------|
|-4----------------4---------7-----9--7-------------------------|
|-4-------------------------------------------------------------|
"change my attempt,good intentions"

|--------------------------------------------------------------|
|--------------------------------------------------------------|
|--------6-6-----------------0---------6-6---------------------|
|--4-----x-x--hold chord-----0----2----x-x--hold chord4-4-4----|
|--4-----4-4-----------------0----2----4-4------------2-2-2----|
|--4------------------------------2----------------------------|
"Should I Could I"

|---------------------------------------------------------------|
|---------------------------------------------------------------|
|-6----------------6---------9----11--9-------------------------|
|-4----------------x---------x-----x--x-------------------------|
|-4----------------4---------7-----9--7-------------------------|
|-4-------------------------------------------------------------|
"here we are with,your ob session

|--------------------------------------------------------------|
|--------------------------------------------------------------|
|--------6-6-----------------0---------6-6---------------------|
|--4-----x-x--hold chord-----0----2----x-x--hold chord4-4-4----|
|--4-----4-4-----------------0----2----4-4------------2-2-2----|
|--4------------------------------2----------------------------|
"Should I Could I"

breakdown
|---------------------------------------------------------------|
|---------------------------------------------------------------|
|------------------6-6-6-6-6-6-6-4-4-4-4-4-4-4------------------|
|-4-4-------4-4----4-4-4-4-4-4-4-2-2-2-2-2-2-2------------------|x4
|-4-4-------4-4----4-4-4-4-4-4-4-2-2-2-2-2-2-2------------------|
|-4-4-------4-4----4-4-4-4-4-4-4-2-2-2-2-2-2-2------------------|


|--------------------------------------------------------------|
|--------------------------------------------------------------|
|-----------6---------------6---------------6------------------|
|-------------------------------------------4------------------|
|-------------------------------------------4------------------|
|-----4------------2/4----------------------4------------------|
"limbs tight.......skin tight" "self inflectid....

|--------------------------------------------------------------|
|--------------------------------------------------------------|
|--------6-6-----------------0---------6-6---------------------|
|--4-----x-x--hold chord-----0----2----x-x--hold chord4-4-4----|
|--4-----4-4-----------------0----2----4-4------------2-2-2----|
|--4------------------------------2----------------------------|
"Should I Could I"


|---------------------------------------------------------------|
|---------------------------------------------------------------|
|-6----------------6---------9----11-9--------------------------|
|-4----------------x---------x-----x-x--------------------------|
|-4----------------4---------7-----9-7--------------------------|
|-4-------------------------------------------------------------|
"change my attempt,good intentions"

|--------------------------------------------------------------|
|--------------------------------------------------------------|
|--------6-6-----------------0---------6-6---------------------|
|--4-----x-x--hold chord-----0----2----x-x--hold chord4-4-4----|
|--4-----4-4-----------------0----2----4-4------------2-2-2----|
|--4------------------------------2----------------------------|
"Should I Could I"
|-------------------------------------------------------------------|
|-------------------------------------------------------------------|
|-----------------------------------6-6-6-6-6-6-6-6-----------------|
|-----------------------------------4-4-4-4-4-4-4-4-----------------|
|-4-4-4-4-4-4-4444-4-4-4-4-4-4-4444-4-4-4-4-4-4-4-4-----------------|
|-4-4-4-4-4-4-4444-4-4-4-4-4-4-4444-4-4-4-4-4-4-4-4-----------------|
pm.................................................

|--------------------------------------------------------------|
|--------------------------------------------------------------|
|--------6-6-----------------0----------6-6--------------------|
|--4-----x-x--hold chord-----0-----2----x-x--hold chord---4-4--|
|--4-----4-4-----------------0-----2----4-4---------------4-4--|
|--4-------------------------------2----------------------4-4--|
"Should I Could I"


End
            
Submit corrections

comments powered by Disqus
↑ Back to top | 10 Years Tabs for Wasteland. Lyrics for acoustic guitar and electric guitar. 1 Tablatures and chords are parodies/interpretations of the original songs. You may use it for private study, scholarship, research or language learning purposes only