>
 >
Wasteland 4

Wasteland 4 Guitar Tabs

10 Years - Wasteland 4 chords, tabs, tablatures, lyrics

Guitar lessons | Add/correct | Request | Top 50 tabs Artists:  A B C D E F G H I J K L M N O P Q R S T U V W X Y Z 0-9

Wasteland 4 Guitar Tabs – 10 Years

CD, Sheet music, Poster

Do you like Wasteland 4? Share with your friends now
Bass TabsBass Tabs v2Bass Tabs v3ChordsTabsTabs v2Tabs v10Tabs v11Tabs v12Tabs v3Tabs v4Tabs v5Tabs v6Tabs v7Tabs v8Tabs v9Ukulele
The song is actually played in a different tuning: C#-G#-C#-F#-D#-D#. 
I just don't like changing the tuning on my guitar alot, so I figured
it out by ear in dropD.
Clean: (let notes ring)
E|-----|---------|-----------|-----|-----|
B|-----|------2--|--------2--|--2--|-----|
G|-----|---------|-----------|--x--|-----|
D|-----|--0------|--0/2------|--4--|-----|
A|-----|--0------|--0/2------|--4--|-----|
D|-----|---------|-----------|--4--|-----|

 
Distortion:
|-------------|-------------------|
|-----2-------|-----2-------------|
|----------4--|----------4-4-4-4--|
|--0-------4--|--2-------4-4-4-4--|
|--0-------2--|--2-------2-2-2-2--|
|--0----------|--2----------------|

   P.M--------------------------------------------------------------->
|-----------------------------------|-----------------------------------|
|-----------------------------------|-----------------------------------|
|----------2-2-2-1-1-1--------------|----------2-2-2-1-1-1-------1------|
|--4-4-4-4-------------2-2-2-2-2-2--|--4-4-4-4-------------2-2-2---2-2--|
|-----------------------------------|-----------------------------------|
|-----------------------------------|-----------------------------------|

   P.M--------------------------------------------------------------->
|-----------------------------------|-----------------------------------|
|-----------------------------------|-----------------------------------|
|----------1-1-1-2-2-2-2-2-2-2-2-2--|--------4-4-4-1-1-1-------1--------|
|--0-0-0-0--------------------------|--------------------2-2-2---2-2----|
|-----------------------------------|--4-4-4----------------------------|
|-----------------------------------|-----------------------------------|/

   P.M--------------------------------------------------------------->
|-----------------------------------|-----------------------------------|
|-----------------------------------|-----------------------------------|
|----------2-2-2-1-1-1--------------|----------2-2-2-1-1-1-------1------|
|--4-4-4-4-------------2-2-2-2-2-2--|--4-4-4-4-------------2-2-2---2-2--|
|-----------------------------------|-----------------------------------|
|-----------------------------------|-----------------------------------|

   P.M--------------------------------------------------------------->
|-----------------------------------|-----------------------------------|
|-----------------------------------|-----------------------------------|
|----------1-1-1-2-2-2-2-2-2-2-2-2--|--------4-4-4-1-1-1-------1--------|
|--0-0-0-0--------------------------|--------------------2-2-2---2-2----|
|-----------------------------------|--4-4-4----------------------------|
|-----------------------------------|-----------------------------------|/

   P.M--------------------------------------------------------------->
|-----------------------------------|-----------------------------------|
|-----------------------------------|-----------------------------------|
|----------2-2-2-1-1-1--------------|----------2-2-2-1-1-1-------1------|
|--4-4-4-4-------------2-2-2-2-2-2--|--4-4-4-4-------------2-2-2---2-2--|
|-----------------------------------|-----------------------------------|
|-----------------------------------|-----------------------------------|

   P.M--------------------------------------------------------------->
|-----------------------------------|-----------------------------------|
|-----------------------------------|-----------------------------------|
|----------1-1-1-2-2-2-2-2-2-2-2-2--|--------4-4-4-1-1-1-------1--------|
|--0-0-0-0--------------------------|--------------------2-2-2---2-2----|
|-----------------------------------|--4-4-4----------------------------|
|-----------------------------------|-----------------------------------|

   P.M--------------------------------------------->
|-----------------------------------|-----------------------------------|
|-----------------------------------|-----------------------------------|
|----------2-2-2-1-1-1--------------|----------2-2-2-1-1-1-------1------|
|--4-4-4-4-------------2-2-2-2-2-2--|--4-4-4-4-------------2-2-2---2-2--|
|-----------------------------------|-----------------------------------|
|-----------------------------------|-----------------------------------|


|-------------|-------------------|
|-----2-------|-----2-------------|
|----------4--|----------4-4-4-4--|
|--0-------4--|--2-------4-4-4-4--|
|--0-------2--|--2-------2-2-2-2--|
|--0----------|--2----------------|


|----------------------|----------------------|--------------|--------------------|
|----------------------|----------------------|-----2--------|-----2--------------|
|----------------------|----------------------|-----------4--|-----------4-4-4-4--|
|--4-4--4-4--4-4--4-4--|--4-4--4-4--4-4--4-4--|--0--------4--|--2--------4-4-4-4--|
|--4-4--4-4--4-4--4-4--|--4-4--4-4--4-4--4-4--|--0--------2--|--2--------2-2-2-2--|
|--4-4--4-4--4-4--4-4--|--4-4--4-4--4-4--4-4--|--0-----------|--2-----------------|


|----------------------|----------------------|--------------|--------------------|
|----------------------|----------------------|-----2--------|-----2--------------|
|----------------------|----------------------|-----------4--|-----------4-4-4-4--|
|--4-4--4-4--4-4--4-4--|--4-4--4-4--4-4--4-4--|--0--------4--|--2--------4-4-4-4--|
|--4-4--4-4--4-4--4-4--|--4-4--4-4--4-4--4-4--|--0--------2--|--2--------2-2-2-2--|
|--4-4--4-4--4-4--4-4--|--4-4--4-4--4-4--4-4--|--0-----------|--2-----------------|


   P.M--------------------------------------------------------------->
|-----------------------------------|-----------------------------------|
|-----------------------------------|-----------------------------------|
|----------2-2-2-1-1-1--------------|----------2-2-2-1-1-1-------1------|
|--4-4-4-4-------------2-2-2-2-2-2--|--4-4-4-4-------------2-2-2---2-2--|
|-----------------------------------|-----------------------------------|
|-----------------------------------|-----------------------------------|

   P.M--------------------------------------------------------------->
|-----------------------------------|-----------------------------------|
|-----------------------------------|-----------------------------------|
|----------1-1-1-2-2-2-2-2-2-2-2-2--|--------4-4-4-1-1-1-------1--------|
|--0-0-0-0--------------------------|--------------------2-2-2---2-2----|
|-----------------------------------|--4-4-4----------------------------|
|-----------------------------------|-----------------------------------|/


   P.M--------------------------------------------->
|-----------------------------------|-----------------------------------|
|-----------------------------------|-----------------------------------|
|----------2-2-2-1-1-1--------------|----------2-2-2-1-1-1-------1------|
|--4-4-4-4-------------2-2-2-2-2-2--|--4-4-4-4-------------2-2-2---2-2--|
|-----------------------------------|-----------------------------------|
|-----------------------------------|-----------------------------------|


|-------------|-------------------|
|-----2-------|-----2-------------|
|----------4--|----------4-4-4-4--|
|--0-------4--|--2-------4-4-4-4--|
|--0-------2--|--2-------2-2-2-2--|
|--0----------|--2----------------|




|----------------------|----------------------|--------------|--------------------|
|----------------------|----------------------|-----2--------|-----2--------------|
|----------------------|----------------------|-----------4--|-----------4-4-4-4--|
|--4-4--4-4--4-4--4-4--|--4-4--4-4--4-4--4-4--|--0--------4--|--2--------4-4-4-4--|
|--4-4--4-4--4-4--4-4--|--4-4--4-4--4-4--4-4--|--0--------2--|--2--------2-2-2-2--|
|--4-4--4-4--4-4--4-4--|--4-4--4-4--4-4--4-4--|--0-----------|--2-----------------|


|----------------------|----------------------|--------------|--------------------|
|----------------------|----------------------|-----2--------|-----2--------------|
|----------------------|----------------------|-----------4--|-----------4-4-4-4--|
|--4-4--4-4--4-4--4-4--|--4-4--4-4--4-4--4-4--|--0--------4--|--2--------4-4-4-4--|
|--4-4--4-4--4-4--4-4--|--4-4--4-4--4-4--4-4--|--0--------2--|--2--------2-2-2-2--|
|--4-4--4-4--4-4--4-4--|--4-4--4-4--4-4--4-4--|--0-----------|--2-----------------|


|----------------------|--------------------------------------------|
|----------------------|--------------------------------------------|
|----------------------|--11-11-11-11-11-11-11-11-11-9-9-9-9-9-9-9--|
|--4-4----4-4----------|--------------------------------------------|
|--4-4----4-4----------|--9--9--9--9--9--9--9--9--9--7-7-7-7-7-7-7--|
|--4-4----4-4----------|--------------------------------------------|


|----------------------|--------------------------------------------|
|----------------------|--------------------------------------------|
|----------------------|--11-11-11-11-11-11-11-11-11-9-9-9-9-9-9-9--|
|--4-4----4-4----------|--------------------------------------------|
|--4-4----4-4----------|--9--9--9--9--9--9--9--9--9--7-7-7-7-7-7-7--|
|--4-4----4-4----------|--------------------------------------------|


|----------------------|--------------------------------------------|
|----------------------|--------------------------------------------|
|----------------------|--11-11-11-11-11-11-11-11-11-9-9-9-9-9-9-9--|
|--4-4----4-4----------|--------------------------------------------|
|--4-4----4-4----------|--9--9--9--9--9--9--9--9--9--7-7-7-7-7-7-7--|
|--4-4----4-4----------|--------------------------------------------|


|----------------------|--------------------------------------------|
|----------------------|--------------------------------------------|
|----------------------|--11-11-11-11-11-11-11-11-11-9-9-9-9-9-9-9--|
|--4-4----4-4----------|--------------------------------------------|
|--4-4----4-4----------|--9--9--9--9--9--9--9--9--9--7-7-7-7-7-7-7--|
|--4-4----4-4----------|--------------------------------------------|

Clean:(let notes ring)
|-----|-----|---------|-----------|-----|-----|
|--2--|-----|------2--|--------2--|--2--|-----|
|--x--|-----|---------|-----------|--x--|-----|
|--4--|-----|--0------|--0/2------|--4--|-----|
|--4--|-----|--0------|--0/2------|--4--|-----|
|--4--|-----|---------|-----------|--4--|-----|


Distortion:
|-------------|-------------------|
|-----2-------|-----2-------------|
|----------4--|----------4-4-4-4--|
|--0-------4--|--2-------4-4-4-4--|
|--0-------2--|--2-------2-2-2-2--|
|--0----------|--2----------------|


|----------------------|----------------------|--------------|--------------------|
|----------------------|----------------------|-----2--------|-----2--------------|
|----------------------|----------------------|-----------4--|-----------4-4-4-4--|
|--4-4--4-4--4-4--4-4--|--4-4--4-4--4-4--4-4--|--0--------4--|--2--------4-4-4-4--|
|--4-4--4-4--4-4--4-4--|--4-4--4-4--4-4--4-4--|--0--------2--|--2--------2-2-2-2--|
|--4-4--4-4--4-4--4-4--|--4-4--4-4--4-4--4-4--|--0-----------|--2-----------------|



   P.M.---------------------------------------------->
|-------------------------------------------------------|
|-------------------------------------------------------|
|-------------------------------------------------------|
|--4--4--4--4--4--4--4-4-4-4-4--4--4--4--4--4--4-4-4-4--|
|-------------------------------------------------------|
|-------------------------------------------------------|

   P.M.---------------------->
|---------------------------------------------------------|
|---------------------------------------------------------|
|---------------------------------------------------------|
|--4--4--4--4--4--4--4-4-4-4-4--4--4--4--4-4-4-4-4-4-4-4--|
|---------------------------------------------------------|
|---------------------------------------------------------|


|-------------|-------------------|
|-----2-------|-----2-------------|
|----------4--|----------4-4-4-4--|
|--0-------4--|--2-------4-4-4-4--|
|--0-------2--|--2-------2-2-2-2--|
|--0----------|--2----------------|


|---------|
|---------|
|---------|
|--4-4----|
|--4-4----|
|--4-4----|

Enjoy!





Comments


Popular 10 Years tabs & chords
Autumn Effect Bass Tabs
Autumn Effect 1 Bass Tabs
One More Day Chords
Through The Iris Chords
All Your Lies Tabs
Autumn Effect 2 Tabs
Cast It Out Tabs
Fault Line 1 Tabs
Soma Tabs
Wasteland Ukulele


Song lyrics



↑ Back to top | Tablatures and chords are parodies/interpretations of the original songs. You may use it for private study, scholarship, research or language learning purposes only
© 2014 AZChords.com Contact us | Privacy policy | DMCA | Add/correct tabs | Request tabs | Top 50 tabs