>
 >
Wasteland 11

Wasteland 11 Guitar Tabs

10 Years - Wasteland 11 chords, tabs, tablatures, lyrics

Guitar lessons | Add/correct | Request | Top 50 tabs Artists:  A B C D E F G H I J K L M N O P Q R S T U V W X Y Z 0-9

Wasteland 11 Guitar Tabs – 10 Years

CD, Sheet music, Poster

Do you like Wasteland 11? Share with your friends now
Bass TabsBass Tabs v2Bass Tabs v3ChordsTabsTabs v2Tabs v10Tabs v11Tabs v12Tabs v3Tabs v4Tabs v5Tabs v6Tabs v7Tabs v8Tabs v9Ukulele
Band: 10 Years
Tuning: Db,Ab,Db,Gb,Db,db or C#G#C#F#C#C#
acoustic version of this song, TheShred201 for the tuning, and 10 Years 
for making this awesome song. This is my first 10 Years tab and my sixth 
one overall. If there's any corrections, let me know. Thanks and please 
rate.



Intro:

db|-----------------------------------------------------|
Db|---------0------------------0-------------------0----|
Gb|-----2-----2---2--------2-----2---2-------2---2---2--|
Db|---0---0-----0--------0---0-----0-------0---0--------| 
Ab|-1------------------3-----------------0--------------|
Db|--------------------------------------0--------------|

db|-------------------------------------------------------|
Db|---------0------------------0-----------------0-----0--|
Gb|-----2-----2---2--------2-----2---2-------2-----2------|
Db|---0---0-----0--------0---0-----0-------0---0-----0----| 
Ab|-1------------------3-----------------0----------------|
Db|--------------------------------------0----------------|

db|-----------------------------------------------------|
Db|---------0------------------0-------------------0----|
Gb|-----2-----2---2--------2-----2---2-------2---2---2--|
Db|---0---0-----0--------0---0-----0-------0---0--------| 
Ab|-1------------------3-----------------0--------------|
Db|--------------------------------------0--------------|

db|-------------------------------------------------------|
Db|---------0------------------0-----------------0-----0--|
Gb|-----2-----2---2--------2-----2---2-------2-----2------|
Db|---0---0-----0--------0---0-----0-------0---0-----0----| 
Ab|-1------------------3-----------------0----------------|
Db|--------------------------------------0----------------|

db|-----------------------------------------------------|
Db|---------0------------------0-------------------0----|
Gb|-----2-----2---2--------2-----2---2-------2---2---2--|
Db|---0---0-----0--------0---0-----0-------0---0--------| 
Ab|-1------------------3-----------------0--------------|
Db|--------------------------------------0--------------|

db|-------------------------------------------------------|
Db|---------0------------------0-----------------0-----0--|
Gb|-----2-----2---2--------2-----2---2-------2-----2------|
Db|---0---0-----0--------0---0-----0-------0---0-----0----| 
Ab|-1------------------3-----------------0----------------|
Db|--------------------------------------0----------------|

db|-----------------------------------------------------|
Db|---------0------------------0-------------------0----|
Gb|-----2-----2---2--------2-----2---2-------2---2---2--|
Db|---0---0-----0--------0---0-----0-------0---0--------| 
Ab|-1------------------3-----------------0--------------|
Db|--------------------------------------0--------------|

db|-----------------------------0----------0---------0--|
Db|----------0------------------0----------0---------0--|
Gb|------2-----2---2-------2----2----------3---------5--|
Db|----0---0-----0-------0---2--0--------1-1---1-/-3-3--|
Ab|--1-----------------3--------3--------1-1---1-/-3-3--|
Db|--------------------------------------1-1---1-/-3-3--|


Soft Chorus:

db|--0-----------0-0-0-0-0-0-0-0------------0-0-0-0-0-0-0-0-0-0--|
Db|--0-----------0-0-0-0-0-0-0-0------------0-0-0-0-0-0-0-0-0-0--|
Gb|--7--------3--3-3-3-3-3-3-3-3---------5--5-5-5-5-5-5-5-5-5-5--|
Db|--5--------1--1-1-1-1-1-1-1-1--1-/-3--3--3-3-3-3-3-3-3-3-3-3--|
Ab|--5--------1--1-1-1-1-1-1-1-1--1-/-3--3--3-3-3-3-3-3-3-3-3-3--|
Db|--5--------1--1-1-1-1-1-1-1-1--1-/-3--3--3-3-3-3-3-3-3-3-3-3--|


Verse:

db|---------------------------------------------------------------------|
Db|---------------------------------------------------------------------|
Gb|---------------------------------------------------------------------|
Db|--5-5-5-5-8-8-8-8-7-7-7-7-5-5-5-5---5-5-5-5-8-8-8-8-7-7-7-7-5-5-5-5--|
Ab|--5-5-5-5-5-5-5-5-5-5-5-5-8-8-8-8---5-5-5-5-5-5-5-5-5-5-5-5-8-5-5-5--|
Db|--5-5-5-5-5-5-5-5-5-5-5-5-5-5-5-5---5-5-5-5-5-5-5-5-5-5-5-5-5-5-5-5--|

db|---------------------------------------------------------------------|
Db|---------------------------------------------------------------------|
Gb|----------2-2-2-2-3-3-3-3-------------------5-5-5-5-3-3-3-3-2-2-2-2--|
Db|--1-1-1-1-1-1-1-1-1-1-1-1-3-3-3-3---0-0-0-0-0-0-0-0-0-0-0-0-0-0-0-0--|
Ab|--1-1-1-1-1-1-1-1-1-1-1-1-1-1-1-1---0-0-0-0-0-0-0-0-0-0-0-0-0-0-0-0--|
Db|--1-1-1-1-1-1-1-1-1-1-1-1-1-1-1-1---0-0-0-0-0-0-0-0-0-0-0-0-0-0-0-0--|

db|---------------------------------------------------------------------|
Db|---------------------------------------------------------------------|
Gb|---------------------------------------------------------------------|
Db|--5-5-5-5-8-8-8-8-7-7-7-7-5-5-5-5---5-5-5-5-8-8-8-8-7-7-7-7-5-5-5-5--|
Ab|--5-5-5-5-5-5-5-5-5-5-5-5-8-8-8-8---5-5-5-5-5-5-5-5-5-5-5-5-8-5-5-5--|
Db|--5-5-5-5-5-5-5-5-5-5-5-5-5-5-5-5---5-5-5-5-5-5-5-5-5-5-5-5-5-5-5-5--|

db|---------------------------------------------------------------------|
Db|---------------------------------------------------------------------|
Gb|----------2-2-2-2-3-3-3-3-------------------5-5-5-5-3-3-3-3-2-2-2-2--|
Db|--1-1-1-1-1-1-1-1-1-1-1-1-3-3-3-3---0-0-0-0-0-0-0-0-0-0-0-0-0-0-0-0--|
Ab|--1-1-1-1-1-1-1-1-1-1-1-1-1-1-1-1---0-0-0-0-0-0-0-0-0-0-0-0-0-0-0-0--|
Db|--1-1-1-1-1-1-1-1-1-1-1-1-1-1-1-1---0-0-0-0-0-0-0-0-0-0-0-0-0-0-0-0--|

db|---------------------------------------------------------------------|
Db|---------------------------------------------------------------------|
Gb|---------------------------------------------------------------------|
Db|--5-5-5-5-8-8-8-8-7-7-7-7-5-5-5-5---5-5-5-5-8-8-8-8-7-7-7-7-5-5-5-5--|
Ab|--5-5-5-5-5-5-5-5-5-5-5-5-8-8-8-8---5-5-5-5-5-5-5-5-5-5-5-5-8-5-5-5--|
Db|--5-5-5-5-5-5-5-5-5-5-5-5-5-5-5-5---5-5-5-5-5-5-5-5-5-5-5-5-5-5-5-5--|

db|---------------------------------------------------------------------|
Db|---------------------------------------------------------------------|
Gb|----------2-2-2-2-3-3-3-3-------------------5-5-5-5-3-3-3-3-2-2-2-2--|
Db|--1-1-1-1-1-1-1-1-1-1-1-1-3-3-3-3---0-0-0-0-0-0-0-0-0-0-0-0-0-0-0-0--|
Ab|--1-1-1-1-1-1-1-1-1-1-1-1-1-1-1-1---0-0-0-0-0-0-0-0-0-0-0-0-0-0-0-0--|
Db|--1-1-1-1-1-1-1-1-1-1-1-1-1-1-1-1---0-0-0-0-0-0-0-0-0-0-0-0-0-0-0-0--|

db|---------------------------------------------------------------------|
Db|---------------------------------------------------------------------|
Gb|---------------------------------------------------------------------|
Db|--5-5-5-5-8-8-8-8-7-7-7-7-5-5-5-5---5-5-5-5-8-8-8-8-7-7-7-7-5-5-5-5--|
Ab|--5-5-5-5-5-5-5-5-5-5-5-5-8-8-8-8---5-5-5-5-5-5-5-5-5-5-5-5-8-5-5-5--|
Db|--5-5-5-5-5-5-5-5-5-5-5-5-5-5-5-5---5-5-5-5-5-5-5-5-5-5-5-5-5-5-5-5--|

db|-----0-0-0-0-0-0-0-0------------0-0-0-0-0-0-0-0-0-0--|
Db|-----0-0-0-0-0-0-0-0------------0-0-0-0-0-0-0-0-0-0--|
Gb|-----3-3-3-3-3-3-3-3---------5--5-5-5-5-5-5-5-5-5-5--|
Db|--1--1-1-1-1-1-1-1-1--1-/-3--3--3-3-3-3-3-3-3-3-3-3--|
Ab|--1--1-1-1-1-1-1-1-1--1-/-3--3--3-3-3-3-3-3-3-3-3-3--|
Db|--1--1-1-1-1-1-1-1-1--1-/-3--3--3-3-3-3-3-3-3-3-3-3--|


Chorus:

db|--0-0-0-0-0-0-0-0-0-0-0-0-0-0-0-0--0-0-0-0-0-0-0-0-0-0-0-0-0-0-0-0--|
Db|--0-0-0-0-0-0-0-0-0-0-0-0-0-0-0-0--0-0-0-0-5-5-5-5-7-7-7-7-8-8-8-8--|
Gb|--7-7-7-7-7-7-7-7-7-7-7-7-7-7-7-7--7-7-7-7-0-0-0-0-0-0-0-0-0-0-0-0--|
Db|--5-5-5-5-5-5-5-5-5-5-5-5-5-5-5-5--5-5-5-5-5-5-5-5-5-5-5-5-5-5-5-5--|
Ab|--5-5-5-5-5-5-5-5-5-5-5-5-5-5-5-5--5-5-5-5-5-5-5-5-5-5-5-5-5-5-5-5--|
Db|--5-5-5-5-5-5-5-5-5-5-5-5-5-5-5-5--5-5-5-5-5-5-5-5-5-5-5-5-5-5-5-5--|

db|-----0-0-0-0-0-0-0-0------------0-0-0-0-0-0-0-0-0-0--|
Db|-----0-0-0-0-0-0-0-0------------0-0-0-0-0-0-0-0-0-0--|
Gb|-----3-3-3-3-3-3-3-3---------5--5-5-5-5-5-5-5-5-5-5--|
Db|--1--1-1-1-1-1-1-1-1--1-/-3--3--3-3-3-3-3-3-3-3-3-3--|
Ab|--1--1-1-1-1-1-1-1-1--1-/-3--3--3-3-3-3-3-3-3-3-3-3--|
Db|--1--1-1-1-1-1-1-1-1--1-/-3--3--3-3-3-3-3-3-3-3-3-3--|

db|--0-0-0-0-0-0-0-0-0-0-0-0-0-0-0-0--0-0-0-0-0-0-0-0-0-0-0-0-0-0-0-0--|
Db|--0-0-0-0-0-0-0-0-0-0-0-0-0-0-0-0--0-0-0-0-5-5-5-5-7-7-7-7-8-8-8-8--|
Gb|--7-7-7-7-7-7-7-7-7-7-7-7-7-7-7-7--7-7-7-7-0-0-0-0-0-0-0-0-0-0-0-0--|
Db|--5-5-5-5-5-5-5-5-5-5-5-5-5-5-5-5--5-5-5-5-5-5-5-5-5-5-5-5-5-5-5-5--|
Ab|--5-5-5-5-5-5-5-5-5-5-5-5-5-5-5-5--5-5-5-5-5-5-5-5-5-5-5-5-5-5-5-5--|
Db|--5-5-5-5-5-5-5-5-5-5-5-5-5-5-5-5--5-5-5-5-5-5-5-5-5-5-5-5-5-5-5-5--|

db|-----0-0-0-0-0-0-0-0------------0-0-0-0-0-0-0-0-0-0--|
Db|-----0-0-0-0-0-0-0-0------------0-0-0-0-0-0-0-0-0-0--|
Gb|-----3-3-3-3-3-3-3-3---------5--5-5-5-5-5-5-5-5-5-5--|
Db|--1--1-1-1-1-1-1-1-1--1-/-3--3--3-3-3-3-3-3-3-3-3-3--|
Ab|--1--1-1-1-1-1-1-1-1--1-/-3--3--3-3-3-3-3-3-3-3-3-3--|
Db|--1--1-1-1-1-1-1-1-1--1-/-3--3--3-3-3-3-3-3-3-3-3-3--|


Verse:

db|---------------------------------------------------------------------|
Db|---------------------------------------------------------------------|
Gb|---------------------------------------------------------------------|
Db|--5-5-5-5-8-8-8-8-7-7-7-7-5-5-5-5---5-5-5-5-8-8-8-8-7-7-7-7-5-5-5-5--|
Ab|--5-5-5-5-5-5-5-5-5-5-5-5-8-8-8-8---5-5-5-5-5-5-5-5-5-5-5-5-8-5-5-5--|
Db|--5-5-5-5-5-5-5-5-5-5-5-5-5-5-5-5---5-5-5-5-5-5-5-5-5-5-5-5-5-5-5-5--|

db|---------------------------------------------------------------------|
Db|---------------------------------------------------------------------|
Gb|----------2-2-2-2-3-3-3-3-------------------5-5-5-5-3-3-3-3-2-2-2-2--|
Db|--1-1-1-1-1-1-1-1-1-1-1-1-3-3-3-3---0-0-0-0-0-0-0-0-0-0-0-0-0-0-0-0--|
Ab|--1-1-1-1-1-1-1-1-1-1-1-1-1-1-1-1---0-0-0-0-0-0-0-0-0-0-0-0-0-0-0-0--|
Db|--1-1-1-1-1-1-1-1-1-1-1-1-1-1-1-1---0-0-0-0-0-0-0-0-0-0-0-0-0-0-0-0--|

db|---------------------------------------------------------------------|
Db|---------------------------------------------------------------------|
Gb|---------------------------------------------------------------------|
Db|--5-5-5-5-8-8-8-8-7-7-7-7-5-5-5-5---5-5-5-5-8-8-8-8-7-7-7-7-5-5-5-5--|
Ab|--5-5-5-5-5-5-5-5-5-5-5-5-8-8-8-8---5-5-5-5-5-5-5-5-5-5-5-5-8-5-5-5--|
Db|--5-5-5-5-5-5-5-5-5-5-5-5-5-5-5-5---5-5-5-5-5-5-5-5-5-5-5-5-5-5-5-5--|

db|-----0-0-0-0-0-0-0-0------------0-0-0-0-0-0-0-0-0-0--|
Db|-----0-0-0-0-0-0-0-0------------0-0-0-0-0-0-0-0-0-0--|
Gb|-----3-3-3-3-3-3-3-3---------5--5-5-5-5-5-5-5-5-5-5--|
Db|--1--1-1-1-1-1-1-1-1--1-/-3--3--3-3-3-3-3-3-3-3-3-3--|
Ab|--1--1-1-1-1-1-1-1-1--1-/-3--3--3-3-3-3-3-3-3-3-3-3--|
Db|--1--1-1-1-1-1-1-1-1--1-/-3--3--3-3-3-3-3-3-3-3-3-3--|


Chorus:

db|--0-0-0-0-0-0-0-0-0-0-0-0-0-0-0-0--0-0-0-0-0-0-0-0-0-0-0-0-0-0-0-0--|
Db|--0-0-0-0-0-0-0-0-0-0-0-0-0-0-0-0--0-0-0-0-5-5-5-5-7-7-7-7-8-8-8-8--|
Gb|--7-7-7-7-7-7-7-7-7-7-7-7-7-7-7-7--7-7-7-7-0-0-0-0-0-0-0-0-0-0-0-0--|
Db|--5-5-5-5-5-5-5-5-5-5-5-5-5-5-5-5--5-5-5-5-5-5-5-5-5-5-5-5-5-5-5-5--|
Ab|--5-5-5-5-5-5-5-5-5-5-5-5-5-5-5-5--5-5-5-5-5-5-5-5-5-5-5-5-5-5-5-5--|
Db|--5-5-5-5-5-5-5-5-5-5-5-5-5-5-5-5--5-5-5-5-5-5-5-5-5-5-5-5-5-5-5-5--|

db|-----0-0-0-0-0-0-0-0------------0-0-0-0-0-0-0-0-0-0--|
Db|-----0-0-0-0-0-0-0-0------------0-0-0-0-0-0-0-0-0-0--|
Gb|-----3-3-3-3-3-3-3-3---------5--5-5-5-5-5-5-5-5-5-5--|
Db|--1--1-1-1-1-1-1-1-1--1-/-3--3--3-3-3-3-3-3-3-3-3-3--|
Ab|--1--1-1-1-1-1-1-1-1--1-/-3--3--3-3-3-3-3-3-3-3-3-3--|
Db|--1--1-1-1-1-1-1-1-1--1-/-3--3--3-3-3-3-3-3-3-3-3-3--|

db|--0-0-0-0-0-0-0-0-0-0-0-0-0-0-0-0--0-0-0-0-0-0-0-0-0-0-0-0-0-0-0-0--|
Db|--0-0-0-0-0-0-0-0-0-0-0-0-0-0-0-0--0-0-0-0-5-5-5-5-7-7-7-7-8-8-8-8--|
Gb|--7-7-7-7-7-7-7-7-7-7-7-7-7-7-7-7--7-7-7-7-0-0-0-0-0-0-0-0-0-0-0-0--|
Db|--5-5-5-5-5-5-5-5-5-5-5-5-5-5-5-5--5-5-5-5-5-5-5-5-5-5-5-5-5-5-5-5--|
Ab|--5-5-5-5-5-5-5-5-5-5-5-5-5-5-5-5--5-5-5-5-5-5-5-5-5-5-5-5-5-5-5-5--|
Db|--5-5-5-5-5-5-5-5-5-5-5-5-5-5-5-5--5-5-5-5-5-5-5-5-5-5-5-5-5-5-5-5--|

db|-----0-0-0-0-0-0-0-0------------0-0-0-0-0-0-0-0-0-0--|
Db|-----0-0-0-0-0-0-0-0------------0-0-0-0-0-0-0-0-0-0--|
Gb|-----3-3-3-3-3-3-3-3---------5--5-5-5-5-5-5-5-5-5-5--|
Db|--1--1-1-1-1-1-1-1-1--1-/-3--3--3-3-3-3-3-3-3-3-3-3--|
Ab|--1--1-1-1-1-1-1-1-1--1-/-3--3--3-3-3-3-3-3-3-3-3-3--|
Db|--1--1-1-1-1-1-1-1-1--1-/-3--3--3-3-3-3-3-3-3-3-3-3--|


Breakdown:

db|-------------------------------------|
Db|-------------------------------------|
Gb|--7-7---------------7-7--------------|
Db|--5-5--x--x-x-x-x---5-5--x--x-x-x-x--|
Ab|--5-5--x--x-x-x-x---5-5--x--x-x-x-x--|
Db|--5-5--x--x-x-x-x---5-5--x--x-x-x-x--|


db|--0--0--0--0--0--0---0-/-0---0--0--0--0--0--0--|
Db|--0--0--0--0--0--0---0-/-0---0--0--0--0--0--0--|
Gb|--3--3--3--3--3--3---3-/-5---5--5--5--5--5--5--|
Db|--1--1--1--1--1--1---1-/-3---3--3--3--3--3--3--|
Ab|--1--1--1--1--1--1---1-/-3---3--3--3--3--3--3--|
Db|--1--1--1--1--1--1---1-/-3---3--3--3--3--3--3--|

db|-------------------------------------|
Db|-------------------------------------|
Gb|--7-7---------------7-7--------------|
Db|--5-5--x--x-x-x-x---5-5--x--x-x-x-x--|
Ab|--5-5--x--x-x-x-x---5-5--x--x-x-x-x--|
Db|--5-5--x--x-x-x-x---5-5--x--x-x-x-x--|

db|--0--0--0--0--0--0---0-/-0---0--0--0--0--0--0--|
Db|--0--0--0--0--0--0---0-/-0---0--0--0--0--0--0--|
Gb|--3--3--3--3--3--3---3-/-5---5--5--5--5--5--5--|
Db|--1--1--1--1--1--1---1-/-3---3--3--3--3--3--3--|
Ab|--1--1--1--1--1--1---1-/-3---3--3--3--3--3--3--|
Db|--1--1--1--1--1--1---1-/-3---3--3--3--3--3--3--|

db|-------------------------------------|
Db|-------------------------------------|
Gb|--7-7---------------7-7--------------|
Db|--5-5--x--x-x-x-x---5-5--x--x-x-x-x--|
Ab|--5-5--x--x-x-x-x---5-5--x--x-x-x-x--|
Db|--5-5--x--x-x-x-x---5-5--x--x-x-x-x--|

db|--0--0--0--0--0--0---0-/-0---0--0--0--0--0--0--|
Db|--0--0--0--0--0--0---0-/-0---0--0--0--0--0--0--|
Gb|--3--3--3--3--3--3---3-/-5---5--5--5--5--5--5--|
Db|--1--1--1--1--1--1---1-/-3---3--3--3--3--3--3--|
Ab|--1--1--1--1--1--1---1-/-3---3--3--3--3--3--3--|
Db|--1--1--1--1--1--1---1-/-3---3--3--3--3--3--3--|

db|-------------------------------------|
Db|-------------------------------------|
Gb|--7-7---------------7-7--------------|
Db|--5-5--x--x-x-x-x---5-5--x--x-x-x-x--|
Ab|--5-5--x--x-x-x-x---5-5--x--x-x-x-x--|
Db|--5-5--x--x-x-x-x---5-5--x--x-x-x-x--|

db|--0--0--0--0--0--0---0-/-0---0--0--0--0--0--0--|
Db|--0--0--0--0--0--0---0-/-0---0--0--0--0--0--0--|
Gb|--3--3--3--3--3--3---3-/-5---5--5--5--5--5--5--|
Db|--1--1--1--1--1--1---1-/-3---3--3--3--3--3--3--|
Ab|--1--1--1--1--1--1---1-/-3---3--3--3--3--3--3--|
Db|--1--1--1--1--1--1---1-/-3---3--3--3--3--3--3--|


Soft Chorus:

db|--0----------0---------0--|
Db|--0----------0---------0--|
Gb|--7----------3---------5--|
Db|--5--------1-1---1-/-3-3--|
Ab|--5--------1-1---1-/-3-3--|
Db|--5--------1-1---1-/-3-3--|

db|--0-----------0-0-0-0-0-0-0-0------------0-0-0-0-0-0-0-0-0-0--|
Db|--0-----------0-0-0-0-0-0-0-0------------0-0-0-0-0-0-0-0-0-0--|
Gb|--7--------3--3-3-3-3-3-3-3-3---------5--5-5-5-5-5-5-5-5-5-5--|
Db|--5--------1--1-1-1-1-1-1-1-1--1-/-3--3--3-3-3-3-3-3-3-3-3-3--|
Ab|--5--------1--1-1-1-1-1-1-1-1--1-/-3--3--3-3-3-3-3-3-3-3-3-3--|
Db|--5--------1--1-1-1-1-1-1-1-1--1-/-3--3--3-3-3-3-3-3-3-3-3-3--|


Chorus/Outro:

db|--0-0-0-0-0-0-0-0-0-0-0-0-0-0-0-0--0-0-0-0-0-0-0-0-0-0-0-0-0-0-0-0--|
Db|--0-0-0-0-0-0-0-0-0-0-0-0-0-0-0-0--0-0-0-0-5-5-5-5-7-7-7-7-8-8-8-8--|
Gb|--7-7-7-7-7-7-7-7-7-7-7-7-7-7-7-7--7-7-7-7-0-0-0-0-0-0-0-0-0-0-0-0--|
Db|--5-5-5-5-5-5-5-5-5-5-5-5-5-5-5-5--5-5-5-5-5-5-5-5-5-5-5-5-5-5-5-5--|
Ab|--5-5-5-5-5-5-5-5-5-5-5-5-5-5-5-5--5-5-5-5-5-5-5-5-5-5-5-5-5-5-5-5--|
Db|--5-5-5-5-5-5-5-5-5-5-5-5-5-5-5-5--5-5-5-5-5-5-5-5-5-5-5-5-5-5-5-5--|

db|-----0-0-0-0-0-0-0-0------------0-0-0-0-0-0-0-0-0-0--|
Db|-----0-0-0-0-0-0-0-0------------0-0-0-0-0-0-0-0-0-0--|
Gb|-----3-3-3-3-3-3-3-3---------5--5-5-5-5-5-5-5-5-5-5--|
Db|--1--1-1-1-1-1-1-1-1--1-/-3--3--3-3-3-3-3-3-3-3-3-3--|
Ab|--1--1-1-1-1-1-1-1-1--1-/-3--3--3-3-3-3-3-3-3-3-3-3--|
Db|--1--1-1-1-1-1-1-1-1--1-/-3--3--3-3-3-3-3-3-3-3-3-3--|

db|--0-0-0-0-0-0-0-0-0-0-0-0-0-0-0-0--0-0-0-0-0-0-0-0-0-0-0-0-0-0-0-0--|
Db|--0-0-0-0-0-0-0-0-0-0-0-0-0-0-0-0--0-0-0-0-5-5-5-5-7-7-7-7-8-8-8-8--|
Gb|--7-7-7-7-7-7-7-7-7-7-7-7-7-7-7-7--7-7-7-7-0-0-0-0-0-0-0-0-0-0-0-0--|
Db|--5-5-5-5-5-5-5-5-5-5-5-5-5-5-5-5--5-5-5-5-5-5-5-5-5-5-5-5-5-5-5-5--|
Ab|--5-5-5-5-5-5-5-5-5-5-5-5-5-5-5-5--5-5-5-5-5-5-5-5-5-5-5-5-5-5-5-5--|
Db|--5-5-5-5-5-5-5-5-5-5-5-5-5-5-5-5--5-5-5-5-5-5-5-5-5-5-5-5-5-5-5-5--|

db|-----0-0-0-0-0-0-0-0------------0-0-0-0-0-0-0-0-0-0--|
Db|-----0-0-0-0-0-0-0-0------------0-0-0-0-0-0-0-0-0-0--|
Gb|-----3-3-3-3-3-3-3-3---------5--5-5-5-5-5-5-5-5-5-5--|
Db|--1--1-1-1-1-1-1-1-1--1-/-3--3--3-3-3-3-3-3-3-3-3-3--|
Ab|--1--1-1-1-1-1-1-1-1--1-/-3--3--3-3-3-3-3-3-3-3-3-3--|
Db|--1--1-1-1-1-1-1-1-1--1-/-3--3--3-3-3-3-3-3-3-3-3-3--|


End on:

db|--0--|
Db|--0--|
Gb|--7--|
Db|--5--|
Ab|--5--|
Db|--5--|


---------------------------------------

Extra Notes:

During the Breakdown, it sounds like the second guitar is playing this. 
It sounds right to me, but if you have other suggestions please 
comment/post your thoughts.

db|-------------------------------------|
Db|-------------------------------------|
Gb|--7-7---------------7-7--------------|
Db|--5-5--x--x-x-x-x---5-5--x--x-x-x-x--|
Ab|--5-5--x--x-x-x-x---5-5--x--x-x-x-x--|
Db|--5-5--x--x-x-x-x---5-5--x--x-x-x-x--|

db|--0--0--0--0--0--0---0-/-0---0--0--0--0--0--0--|
Db|--5--5--5--5--5--5---5-/-3---3--3--3--3--3--3--|
Gb|--0--0--0--0--0--0---0-/-0---0--0--0--0--0--0--|
Db|--5--5--5--5--5--5---5-/-3---3--3--3--3--3--3--|
Ab|--0--0--0--0--0--0---0-/-0---0--0--0--0--0--0--|
Db|-----------------------------------------------|





Comments


Popular 10 Years tabs & chords
Insects Bass Tabs
Wasteland Bass Tabs
So Long Goodbye 2 Chords
So Long, Goodbye Chords
Actions And Motives 1 Tabs
Dancing With The Dead Tabs
Half Life 2 Tabs
Running In Place Tabs
Seasons To Cycles 1 Tabs
So Long, Goodbye Tabs


Song lyrics



↑ Back to top | Tablatures and chords are parodies/interpretations of the original songs. You may use it for private study, scholarship, research or language learning purposes only
© 2014 AZChords.com Contact us | Privacy policy | DMCA | Add/correct tabs | Request tabs | Top 50 tabs