» » »

Waking Up Tabs (ver.1)

Artists:  A B C D E F G H I J K L M N O P Q R S T U V W X Y Z # 

Waking Up Tabs (ver.1)

10 Years
Rating:
0/5 (0 votes)

Hard to play? Try these video lessons and learn fast.
                

Tuning:
Db Ab Db Gb Db Db

Intro:

Db ---------------------------------|
Db ---------------------------------|
Gb ---------------------------------| play 4x
Db ---9h10p9---10-9---9-12----------|
Ab --------------------------10-12--|
Db ---------------------------------|

Db --------------------------------------|
Db --------------------------------------|
Gb --------------------------------------| play 2x
Db ---9-10-7-7-7--9-10-7-7-7--3-3-3/5-5--|
Ab ---7-7--7-7-7--7-7--7-7-7--3-3-3/5-5--|
Db ---7-7--7-7-7--7-7--7-7-7--3-3-3/5-5--|

Verses:

Db ---------------------------------|
Db ---------------------------------|
Gb ---------------------------------| play 2x
Db ---9h10p9---10-9---9-12----------|
Ab --------------------------10-12--|
Db ---------------------------------|

Db ------------------------------------|
Db ------------------------------------|
Gb ---11/12\11--12-11----11-14---------| play 2x
Db ---9-/10\9---10-9-----9--12---12-14-|
Ab ------------------------------10-12-|
Db ------------------------------------|

Db ---------------------------------|
Db ---------------------------------|
Gb ---------------------------------| play 2x
Db ---9h10p9---10-9---9-12----------|
Ab --------------------------10-12--|
Db ---------------------------------|


Chorus:

1st chorus, play 2x
2nd chorus, play 4x

Db --------------------------------------|
Db --------------------------------------|
Gb --------------------------------------|
Db ---9-10-7-7-7--9-10-7-7-7--3-3-3/5-5--|
Ab ---7-7--7-7-7--7-7--7-7-7--3-3-3/5-5--|
Db ---7-7--7-7-7--7-7--7-7-7--3-3-3/5-5--|

Bridge:

Guitar 1:
Db ---------------------------------|
Db ---------------------------------|
Gb ---------------------------------| play 4x
Db ---9h10-----10-9---9-12----------|
Ab --------------------------10-12--|
Db ---------------------------------|

Guitar 2:
Db -------------------------------------|
Db -------------------------------------|
Gb -------------------------------------| play 4x
Db ---7-7-7--7-7-7--10-10-10--12-12-12--|
Ab ---7-7-7--7-7-7--10-10-10--12-12-12--|
Db ---7-7-7--7-7-7--10-10-10--12-12-12--|

Outro Chorus:

Db ----------------------------|
Db ----------------------------|
Gb ----------------------------|
Db ---7-------------3-3-3/5-5--|
Ab ---7-------------3-3-3/5-5--|
Db ---7---------/17\3-3-3/5-5--|

Db --------------------------------------|
Db --------------------------------------|
Gb --------------------------------------| play 3x
Db ---9-10-7-7-7--9-10-7-7-7--3-3-3/5-5--|
Ab ---7-7--7-7-7--7-7--7-7-7--3-3-3/5-5--|
Db ---7-7--7-7-7--7-7--7-7-7--3-3-3/5-5--|

Db --------|
Db --------|
Gb --------|
Db ---7----|
Ab ---7----|
Db ---7----|
            
Hard to play? Try these video lessons and learn fast. | Correct




comments powered by Disqus
↑ Back to top | Tablatures and chords are parodies/interpretations of the original songs. You may use it for private study, scholarship, research or language learning purposes only