» » »

10 Years, Proud Of You Tabs (ver.2)

Artists:  A B C D E F G H I J K L M N O P Q R S T U V W X Y Z # 

Proud Of You Tabs (ver.2)

10 Years Tabs
 Rating:
4.5/5 (8 votes)
Proud Of You lessons Tabs too difficult? Try these video lessons and learn fast
                10 Years
Tuning Db Ab Db Gb Bb Db

I was asked awhile back to tab “Proud Of You” so here it is. Sorry for
the wait. I’ll finish the solo and add times stamps soon.

Intro: Guitar 1 (play 1 time)
Db|-----------0------------0------------0--0--------------0-----------|
Bb|--------6------------4------------1--------1---------1---1---------|
Gb|-----0------------3------------3--------------3----3-------3---3---|
Db|--3------------1---------------------------------0-----------0-----|
Ab|----------------------------3--------------------------------------|
Db|-------------------------------------------------------------------|

Verse 1: Guitar 1 (play 4 times)
Db|-----------0------------0------------0--0--------------0-----------|
Bb|--------6------------4------------1--------1---------1---1---------|
Gb|-----0------------3------------3--------------3----3-------3---3---|
Db|--3------------1---------------------------------0-----------0-----|
Ab|----------------------------3--------------------------------------|
Db|-------------------------------------------------------------------|

Pre-Chorus: Guitar 1 (play 1 time)
Db|-----------0------------0------------0--0--------------0-----------|
Bb|--------6------------4------------1--------1---------1---1---------|
Gb|-----0------------3------------3--------------3----3-------3---3---|
Db|--3------------1---------------------------------0-----------0-----|
Ab|----------------------------3--------------------------------------|
Db|-------------------------------------------------------------------|

Pre-Chorus: Guitar 1 (play 1 time)
Db|-----------0------------0------------0--0--------------0-----------|
Bb|--------6------------4------------1--------1---------1---1---------|
Gb|-----0------------3------------3--------------3----3--------3--2---|
Db|--3------------1---------------------------------0-----------------|
Ab|----------------------------3--------------------------------------|
Db|-------------------------------------------------------------------|

Chorus: Guitar 1 (right hand of the piano)
Db|--------------0---------------------------------0------------------|
Bb|-----------1-----1-----1---------------------1-----1-----1---------|
Gb|-----0--3-----------3------------------0--3-----------3------------|
Db|-------------------------------------------------------------------|
Ab|-------------------------------------------------------------------|
Db|-------------------------------------------------------------------|
                                                                      |
Chorus Guitar 2 (left hand of the piano)                              |
Db|-------------------------------------------------------------------|
Bb|-------------------------------------------------------------------|
Gb|--0----------------------------------------------------------------|
Db|--5---------------------------------3------------------------------|
Ab|--5---------------------------------1------------------------------|
Db|--5------------------------------5---------------------------------|

Chorus: Guitar 1 (right hand of the piano)
Db|----------------0-------------------------------0------------------|
Bb|-------------1-----1-----1-------------------1-----1-----1---------|
Gb|-------0--3-----------3----------------0--3-----------3------------|
Db|-------------------------------------------------------------------|
Ab|-------------------------------------------------------------------|
Db|-------------------------------------------------------------------|
                                                                      |
Chorus Guitar 2 (left hand of the piano)                              |
Db|-------------------------------------------------------------------|
Bb|-------------------------------------------------------------------|
Gb|-------------------------------------------------------------------|
Db|-----5------------------------------8--7---------------------------|
Ab|--1--3------------------------------6--5---------------------------|
Db|-------------------------------------------------------------------|

Chorus: Guitar 1 (right hand of the piano)
Db|--------------0---------------------------------0------------------|
Bb|-----------1-----1-----1---------------------1-----1-----1---------|
Gb|-----0--3-----------3------------------0--3-----------3------------|
Db|-------------------------------------------------------------------|
Ab|-------------------------------------------------------------------|
Db|-------------------------------------------------------------------|
                                                                      |
Chorus Guitar 2 (left hand of the piano)                              |
Db|-------------------------------------------------------------------|
Bb|-------------------------------------------------------------------|
Gb|--0----------------------------------------------------------------|
Db|--5---------------------------------3------------------------------|
Ab|--5---------------------------------1------------------------------|
Db|--5------------------------------5---------------------------------|

Chorus: Guitar 1 (right hand of the piano)
Db|----------------0----------------------------3--5--5---------------|
Bb|-------------1-----1-----1-------------------3--3--3---------------|
Gb|-------0--3-----------3----------------0--3------------------------|
Db|-------------------------------------------------------------------|
Ab|-------------------------------------------------------------------|
Db|-------------------------------------------------------------------|
                                                                      |
Chorus Guitar 2 (left hand of the piano)                              |
Db|-------------------------------------------------------------------|
Bb|-------------------------------------------------------------------|
Gb|-------------------------------------------------------------------|
Db|-----5------------------------------8--7---------------------------|
Ab|--1--3------------------------------6--5---------------------------|
Db|-------------------------------------------------------------------|

Chorus: Guitar 1 (right hand of the piano)
Db|--------------0---------------------------------0------------------|
Bb|-----------1-----1-----1---------------------1-----1-----1---------|
Gb|-----0--3-----------3------------------0--3-----------3------------|
Db|-------------------------------------------------------------------|
Ab|-------------------------------------------------------------------|
Db|-------------------------------------------------------------------|
                                                                      |
Chorus Guitar 2 (left hand of the piano)                              |
Db|-------------------------------------------------------------------|
Bb|-------------------------------------------------------------------|
Gb|--0----------------------------------------------------------------|
Db|--5---------------------------------3------------------------------|
Ab|--5---------------------------------1------------------------------|
Db|--5------------------------------5---------------------------------|

Chorus: Guitar 1 (right hand of the piano)
Db|----------------0----------------------------3--5--5---------------|
Bb|-------------1-----1-----1-------------------3--3--3---------------|
Gb|-------0--3-----------3----------------0--3------------------------|
Db|-------------------------------------------------------------------|
Ab|-------------------------------------------------------------------|
Db|-------------------------------------------------------------------|
                                                                      |
Chorus Guitar 2 (left hand of the piano)                              |
Db|-------------------------------------------------------------------|
Bb|-------------------------------------------------------------------|
Gb|-------------------------------------------------------------------|
Db|-----5------------------------------8--7---------------------------|
Ab|--1--3------------------------------6--5---------------------------|
Db|-------------------------------------------------------------------|

Chorus: Guitar 1 (right hand of the piano)
Db|--------------0---------------------------------0------------------|
Bb|-----------1-----1-----1---------------------1-----1-----1---------|
Gb|-----0--3-----------3------------------0--3-----------3------------|
Db|-------------------------------------------------------------------|
Ab|-------------------------------------------------------------------|
Db|-------------------------------------------------------------------|
                                                                      |
Chorus Guitar 2 (left hand of the piano)                              |
Db|-------------------------------------------------------------------|
Bb|-------------------------------------------------------------------|
Gb|--0----------------------------------------------------------------|
Db|--5---------------------------------3------------------------------|
Ab|--5---------------------------------1------------------------------|
Db|--5------------------------------5---------------------------------|

Chorus: Guitar 1 (right hand of the piano)
Db|----------------0-------------------5------------------------------|
Bb|-------------1-----1-----1----------6------------------------------|
Gb|-------0--3-----------3-------------7------------------------------|
Db|-------------------------------------------------------------------|
Ab|-------------------------------------------------------------------|
Db|-------------------------------------------------------------------|
                                                                      |
Chorus Guitar 2 (left hand of the piano)                              |
Db|-------------------------------------------------------------------|
Bb|-------------------------------------------------------------------|
Gb|-------------------------------------------------------------------|
Db|-----5------------------------------7------------------------------|
Ab|--1--3------------------------------5------------------------------|
Db|-------------------------------------------------------------------|

Post Chorus: Guitar 1 (play 2 times)
Db|-----------0------------0------------0--0--------------0-----------|
Bb|--------6------------4------------1--------1---------1---1---------|
Gb|-----0------------3------------3--------------3----3-------3---3---|
Db|--3------------1---------------------------------0-----------0-----|
Ab|----------------------------3--------------------------------------|
Db|-------------------------------------------------------------------|

Verse 2: Guitar 1 (play 4 times)
Db|-----------0------------0------------0--0--------------0-----------|
Bb|--------6------------4------------1--------1---------1---1---------|
Gb|-----0------------3------------3--------------3----3-------3---3---|
Db|--3------------1---------------------------------0-----------0-----|
Ab|----------------------------3--------------------------------------|
Db|-------------------------------------------------------------------|

Pre-Chorus: Guitar 1 (play 1 time)
Db|-----------0------------0------------0--0--------------0-----------|
Bb|--------6------------4------------1--------1---------1---1---------|
Gb|-----0------------3------------3--------------3----3-------3---3---|
Db|--3------------1---------------------------------0-----------0-----|
Ab|----------------------------3--------------------------------------|
Db|-------------------------------------------------------------------|

Pre-Chorus: Guitar 1 (play 1 time)
Db|-----------0------------0------------0--0--------------0-----------|
Bb|--------6------------4------------1--------1---------1---1---------|
Gb|-----0------------3------------3--------------3----3--------3--2---|
Db|--3------------1---------------------------------0-----------------|
Ab|----------------------------3--------------------------------------|
Db|-------------------------------------------------------------------|

Chorus: Guitar 1 (right hand of the piano)
Db|--------------0---------------------------------0------------------|
Bb|-----------1-----1-----1---------------------1-----1-----1---------|
Gb|-----0--3-----------3------------------0--3-----------3------------|
Db|-------------------------------------------------------------------|
Ab|-------------------------------------------------------------------|
Db|-------------------------------------------------------------------|
                                                                      |
Chorus Guitar 2 (left hand of the piano)                              |
Db|-------------------------------------------------------------------|
Bb|-------------------------------------------------------------------|
Gb|--0----------------------------------------------------------------|
Db|--5---------------------------------3------------------------------|
Ab|--5---------------------------------1------------------------------|
Db|--5------------------------------5---------------------------------|

Chorus: Guitar 1 (right hand of the piano)
Db|----------------0-------------------------------0------------------|
Bb|-------------1-----1-----1-------------------1-----1-----1---------|
Gb|-------0--3-----------3----------------0--3-----------3------------|
Db|-------------------------------------------------------------------|
Ab|-------------------------------------------------------------------|
Db|-------------------------------------------------------------------|
                                                                      |
Chorus Guitar 2 (left hand of the piano)                              |
Db|-------------------------------------------------------------------|
Bb|-------------------------------------------------------------------|
Gb|-------------------------------------------------------------------|
Db|-----5------------------------------8--7---------------------------|
Ab|--1--3------------------------------6--5---------------------------|
Db|-------------------------------------------------------------------|

Chorus: Guitar 1 (right hand of the piano)
Db|--------------0---------------------------------0------------------|
Bb|-----------1-----1-----1---------------------1-----1-----1---------|
Gb|-----0--3-----------3------------------0--3-----------3------------|
Db|-------------------------------------------------------------------|
Ab|-------------------------------------------------------------------|
Db|-------------------------------------------------------------------|
                                                                      |
Chorus Guitar 2 (left hand of the piano)                              |
Db|-------------------------------------------------------------------|
Bb|-------------------------------------------------------------------|
Gb|--0----------------------------------------------------------------|
Db|--5---------------------------------3------------------------------|
Ab|--5---------------------------------1------------------------------|
Db|--5------------------------------5---------------------------------|

Chorus: Guitar 1 (right hand of the piano)
Db|----------------0----------------------------3--5--5---------------|
Bb|-------------1-----1-----1-------------------3--3--3---------------|
Gb|-------0--3-----------3----------------0--3------------------------|
Db|-------------------------------------------------------------------|
Ab|-------------------------------------------------------------------|
Db|-------------------------------------------------------------------|
                                                                      |
Chorus Guitar 2 (left hand of the piano)                              |
Db|-------------------------------------------------------------------|
Bb|-------------------------------------------------------------------|
Gb|-------------------------------------------------------------------|
Db|-----5------------------------------8--7---------------------------|
Ab|--1--3------------------------------6--5---------------------------|
Db|-------------------------------------------------------------------|

Chorus: Guitar 1 (right hand of the piano)
Db|--------------0---------------------------------0------------------|
Bb|-----------1-----1-----1---------------------1-----1-----1---------|
Gb|-----0--3-----------3------------------0--3-----------3------------|
Db|-------------------------------------------------------------------|
Ab|-------------------------------------------------------------------|
Db|-------------------------------------------------------------------|
                                                                      |
Chorus Guitar 2 (left hand of the piano)                              |
Db|-------------------------------------------------------------------|
Bb|-------------------------------------------------------------------|
Gb|--0----------------------------------------------------------------|
Db|--5---------------------------------3------------------------------|
Ab|--5---------------------------------1------------------------------|
Db|--5------------------------------5---------------------------------|

Chorus: Guitar 1 (right hand of the piano)
Db|----------------0----------------------------3--5--5---------------|
Bb|-------------1-----1-----1-------------------3--3--3---------------|
Gb|-------0--3-----------3----------------0--3------------------------|
Db|-------------------------------------------------------------------|
Ab|-------------------------------------------------------------------|
Db|-------------------------------------------------------------------|
                                                                      |
Chorus Guitar 2 (left hand of the piano)                              |
Db|-------------------------------------------------------------------|
Bb|-------------------------------------------------------------------|
Gb|-------------------------------------------------------------------|
Db|-----5------------------------------8--7---------------------------|
Ab|--1--3------------------------------6--5---------------------------|
Db|-------------------------------------------------------------------|

Chorus: Guitar 1 (right hand of the piano)
Db|--------------0---------------------------------0------------------|
Bb|-----------1-----1-----1---------------------1-----1-----1---------|
Gb|-----0--3-----------3------------------0--3-----------3------------|
Db|-------------------------------------------------------------------|
Ab|-------------------------------------------------------------------|
Db|-------------------------------------------------------------------|
                                                                      |
Chorus Guitar 2 (left hand of the piano)                              |
Db|-------------------------------------------------------------------|
Bb|-------------------------------------------------------------------|
Gb|--0----------------------------------------------------------------|
Db|--5---------------------------------3------------------------------|
Ab|--5---------------------------------1------------------------------|
Db|--5------------------------------5---------------------------------|

Chorus: Guitar 1 (right hand of the piano)
Db|----------------0---------------------------0--5-5-----------------|
Bb|-------------1-----1-----1---------------------6-6-----------------|
Gb|-------0--3-----------3---------------0--3-----7-7-----------------|
Db|-------------------------------------------------------------------|
Ab|-------------------------------------------------------------------|
Db|-------------------------------------------------------------------|
                                                                      |
Chorus Guitar 2 (left hand of the piano)                              |
Db|-------------------------------------------------------------------|
Bb|-------------------------------------------------------------------|
Gb|-------------------------------------------------------------------|
Db|-----5------------------------------8-7----------------------------|
Ab|--1--3------------------------------6-5----------------------------|
Db|-------------------------------------------------------------------|

Bridge: Guitar 1
Db|----8-7-5--5--5--5---8-7-5--5--5--5---8-7-5--5--5--5-5-----3--3--33|
Bb|----8-6-5--5--5--5---8-6-5--5--5--5---8-6-5--5--5--5-5-----3--3--33|
Gb|-----------5--5--5----------5--5--5----------5--5--5-5-----3--3--33|
Db|-----------5--5--5----------5--5--5----------5--5--5-5-----3--3--33|
Ab|-------------------------------------------------------------------|
Db|-------------------------------------------------------------------|
                                                                      |
Bridge: Guitar 2                                                      |
Db|-------------------------------------------------------------------|
Bb|-------------------------------------------------------------------|
Gb|-------------------------------------------------------------------|
Db|--8-------10-------8-------10-------8-------10-------10----8--8----|
Ab|--6-------10-------6-------10-------6-------10-------10----8--8----|
Db|----------10---------------10---------------10-------10----8--8----|

Bridge: Guitar 2 (play 4 times)
Db|-------------------------------------------------------------------|
Bb|-------------------------------------------------------------------|
Gb|-------------------------------------------------------------------|
Db|--10----------------8------7------6----------8------7------10------|
Ab|--10----------------8------8------6----------6------5------8-------|
Db|--10----------------8------7------6--------------------------------|

Outro: Guitar 2
Db|-------------------------------------------------------------------|
Bb|-------------------------------------------------------------------|
Gb|-------------------------------------------------------------------|
Db|--10--------10--------10--------10--------10--------10--------10---|
Ab|--10--------10--------10--------10--------10--------10--------10---|
Db|--10--------10--------10--------10--------10--------10--------10---|

I’ll have the rest up soon.
            
Submit corrections

comments powered by Disqus
↑ Back to top | 10 Years Tabs for Proud Of You. Lyrics for acoustic guitar and electric guitar. Tablatures and chords are parodies/interpretations of the original songs. You may use it for private study, scholarship, research or language learning purposes only