» » »

Dead In The Water Tabs (ver.2)

Artists:  A B C D E F G H I J K L M N O P Q R S T U V W X Y Z # 

Dead In The Water Tabs (ver.2)

10 Years
Rating:
0/5 (0 votes)

Hard to play? Try these video lessons and learn fast.
                10 YEARS - Dead in the Water
Drop D

~ - let ring
p - pull off
. - palm mute

---INTRO---

E|----------------------------------------------------------------------------------------------|
B|--2~--2~--------------------------------------------------------------------------------------|
G|--2~--2~--------------------------------------------------------------------------------------|
D|--2~--2~--4--4-4--9-7--7-7--9-2--2--2-2--99999999--4--4-4--9-7--7-7--9-2--2--2-2--99999999-4~-|
A|----------4--4-4--9-7--7-7--9-2--2--2-2--99999999--4--4-4--9-7--7-7--9-2--2--2-2--99999999-4~-|
D|----------4--4-4--9-7--7-7--9-2--2--2-2--99999999--4--4-4--9-7--7-7--9-2--2--2-2--99999999-4~-|

---VERSE---

E|---------------------|
B|--2~---2~---2~---2~--|
G|--2~---2~---2~---2~--|
D|--2~---2~---2~---2~--|
A|---------------------|
D|---------------------|

---PRE CHORUS---

E|-------------------------------------------------------------|
B|-------------------------------------------------------------|
G|-------------------------------------------------------------|
D|--\4-4-4-4--9-9-7-7-7-7--11-11-9-9-9-9--7p5-2-2-2-2-2-2-5p3--|
A|--\4-4-4-4--9-9-7-7-7-7--11-11-9-9-9-9--7p5-2-2-2-2-2-2-5p3--|
D|--\4-4-4-4--9-9-7-7-7-7--11-11-9-9-9-9--7p5-2-2-2-2-2-2-5p3--|
     . . . .  . . . . . .   .  . . . . .      . . . . . . . .

E|----------------------------------------------------------------------|
B|----------------------------------------------------------------------|
G|----------------------------------------------------------------------|
D|--4-4-4-4--9-9-7-7-7-7--11-11-9-9-9-9--13-13-11-11-11-11-11-11-11-11--|
A|--4-4-4-4--9-9-7-7-7-7--11-11-9-9-9-9--13-13-11-11-11-11-11-11-11-11--|
D|--4-4-4-4--9-9-7-7-7-7--11-11-9-9-9-9--13-13-11-11-11-11-11-11-11-11--|
    . . . .  . . . . . .   .  . . . . .   .  .  .  .  .  .  .  .  .  .

---CHORUS---
Repeat x2

E|------------------------------------------------------------|
B|------------------------------------------------------------|
G|------------------------------------------------------------|
D|--4--4-4-4-4--9-7--7-7-7-7--9-2--2-2-2-2-2-2----------------|
A|--4--4-4-4-4--9-7--7-7-7-7--9-2--2-2-2-2-2-2--4-2-0-2-------|
D|--4--4-4-4-4--9-7--7-7-7-7--9-2--2-2-2-2-2-2-----------4-2--|

E|---------------------------------------------------------------|
B|---------------------------------------------------------------|
G|---------------------------------------------------------------|
D|--4--4-4-4-4--9-7--7-7-7-7--9-2--2-2-2-2-2-2--9-9-9-9-9-9-9-9--|
A|--4--4-4-4-4--9-7--7-7-7-7--9-2--2-2-2-2-2-2--9-9-9-9-9-9-9-9--|
D|--4--4-4-4-4--9-7--7-7-7-7--9-2--2-2-2-2-2-2--9-9-9-9-9-9-9-9--|

---VERSE---

E|---------------------|
B|--2~---2~---2~---2~--|
G|--2~---2~---2~---2~--|
D|--2~---2~---2~---2~--|
A|---------------------|
D|---------------------|

---PRE CHORUS---

E|-------------------------------------------------------------|
B|-------------------------------------------------------------|
G|-------------------------------------------------------------|
D|--\4-4-4-4--9-9-7-7-7-7--11-11-9-9-9-9--7p5-2-2-2-2-2-2-5p3--|
A|--\4-4-4-4--9-9-7-7-7-7--11-11-9-9-9-9--7p5-2-2-2-2-2-2-5p3--|
D|--\4-4-4-4--9-9-7-7-7-7--11-11-9-9-9-9--7p5-2-2-2-2-2-2-5p3--|
     . . . .  . . . . . .   .  . . . . .      . . . . . . . .

E|----------------------------------------------------------------------|
B|----------------------------------------------------------------------|
G|----------------------------------------------------------------------|
D|--4-4-4-4--9-9-7-7-7-7--11-11-9-9-9-9--13-13-11-11-11-11-11-11-11-11--|
A|--4-4-4-4--9-9-7-7-7-7--11-11-9-9-9-9--13-13-11-11-11-11-11-11-11-11--|
D|--4-4-4-4--9-9-7-7-7-7--11-11-9-9-9-9--13-13-11-11-11-11-11-11-11-11--|
    . . . .  . . . . . .   .  . . . . .   .  .  .  .  .  .  .  .  .  .

---CHORUS---
Repeat x2

E|------------------------------------------------------------|
B|------------------------------------------------------------|
G|------------------------------------------------------------|
D|--4--4-4-4-4--9-7--7-7-7-7--9-2--2-2-2-2-2-2----------------|
A|--4--4-4-4-4--9-7--7-7-7-7--9-2--2-2-2-2-2-2--4-2-0-2-------|
D|--4--4-4-4-4--9-7--7-7-7-7--9-2--2-2-2-2-2-2-----------4-2--|

E|---------------------------------------------------------------|
B|---------------------------------------------------------------|
G|---------------------------------------------------------------|
D|--4--4-4-4-4--9-7--7-7-7-7--9-2--2-2-2-2-2-2--9-9-9-9-9-9-9-9--|
A|--4--4-4-4-4--9-7--7-7-7-7--9-2--2-2-2-2-2-2--9-9-9-9-9-9-9-9--|
D|--4--4-4-4-4--9-7--7-7-7-7--9-2--2-2-2-2-2-2--9-9-9-9-9-9-9-9--|

---BRIDGE---
repeat x4

E|---------------------------------------------------------------------------|
B|---------------------------------------------------------------------------|
G|---------------------------------------------------------------------------|
D|----------------------------2-0-2-4-4---------------------------2-0-2-4-4--|
A|----------------------------2-0-2-4-4---------------------------2-0-2-4-4--|
D|--7-5-4--9-7-6--11-9-14-12--2-0-2-4-4--7-5-4--9-7-6--11-9--9-7--2-0-2-4-4--|

---INTERLUDE---

E|-----------------------|
B|-----------------------|
G|-----------------------|
D|--4~----(heavy dist.)--|
A|--4~-----4-2-0-2-------|
D|--4~--------------4-2--|

---CHORUS---
Repeat x2

E|------------------------------------------------------------|
B|------------------------------------------------------------|
G|------------------------------------------------------------|
D|--4--4-4-4-4--9-7--7-7-7-7--9-2--2-2-2-2-2-2----------------|
A|--4--4-4-4-4--9-7--7-7-7-7--9-2--2-2-2-2-2-2--4-2-0-2-------|
D|--4--4-4-4-4--9-7--7-7-7-7--9-2--2-2-2-2-2-2-----------4-2--|

E|---------------------------------------------------------------|
B|---------------------------------------------------------------|
G|---------------------------------------------------------------|
D|--4--4-4-4-4--9-7--7-7-7-7--9-2--2-2-2-2-2-2--9-9-9-9-9-9-9-9--|
A|--4--4-4-4-4--9-7--7-7-7-7--9-2--2-2-2-2-2-2--9-9-9-9-9-9-9-9--|
D|--4--4-4-4-4--9-7--7-7-7-7--9-2--2-2-2-2-2-2--9-9-9-9-9-9-9-9--|

---OUTRO---
repeat x2

E|---------------------------------------------------------------------------|
B|---------------------------------------------------------------------------|
G|---------------------------------------------------------------------------|
D|----------------------------2-0-2-4-4---------------------------2-0-2-4-4--|
A|----------------------------2-0-2-4-4---------------------------2-0-2-4-4--|
D|--7-5-4--9-7-6--11-9-14-12--2-0-2-4-4--7-5-4--9-7-6--11-9--9-7--2-0-2-4-4--|
            
Hard to play? Try these video lessons and learn fast. | Correct




comments powered by Disqus
↑ Back to top | Tablatures and chords are parodies/interpretations of the original songs. You may use it for private study, scholarship, research or language learning purposes only