» » »

10 Years, 11 00 Am Daydreamer Tabs (ver.1)

Artists:  A B C D E F G H I J K L M N O P Q R S T U V W X Y Z # 

11 00 Am Daydreamer Tabs (ver.1)

10 Years Tabs
Rating:
5/5 (7 votes)
11 00 Am Daydreamer lessons Tabs too difficult? Try these video lessons and learn fast
                10 Years
11:00am (Daydreamer)
Tuning Db Ab Db Gb Bb Eb

Legend
*-harmonic                     ()-optional                     p-pull off
h-hammer on                    /-slide up                      \-slide down

Intro: Tater Guitar 1 (Distorted with feedback)
Eb|--------------------------------------------------------------------------|
Bb|--------------------------------------------------------------------------|
Gb|--------------------------------------------------------------------------|
Db|--------------------------------------------------------------------------|
Ab|--------------------------------------------------------------------------|
Db|--------------------------------------------------------------------------|
                                                                             |
Intro: Matt Guitar 2 (Distorted)                                             |
Eb|--------------------------------------------------------------------------|
Bb|--------0-----------------------------------------------------------------|
Gb|-------16-----------------------------------------------------------------|
Db|-------16-----------------------------------------------------------------|
Ab|--------------------------------------------------------------------------|
Db|--------------------------------------------------------------------------|

Intro: Guitar 1
Eb|--------------------------------------------------------------------------|
Bb|--------------------------------------------------------------------------|
Gb|--------------------------------------------------------------------------|
Db|----------------------------------5-5-5-5-5-5-5-5--7-7-7-7-7-7-7-7--------|
Ab|--2--0--2--5--0---2--0--2---5--0--3-3-3-3-3-3-3-3--5-5-5-5-5-5-5-5--------|
Db|--2--0--2--5--0---2--0--2---5--0------------------------------------------|
                                                                             |
Intro: Guitar 2 (Distorted)                                                  |
Eb|--7---7---7---7---7---7---7---7---3---3---3---3----5---5---5---5----------|
Bb|--| Hold a 1/4 bend on the 7’s |------------------------------------------|
Gb|--------------------------------------------------------------------------|
Db|--------------------------------------------------------------------------|
Ab|--------------------------------------------------------------------------|
Db|--------------------------------------------------------------------------|

Intro: Guitar 1
Eb|--------------------------------------------------------------------------|
Bb|--------------------------------------------------------------------------|
Gb|--------------------------------------------------------------------------|
Db|----------------------------------5-5-5-5-5-5-5-5--7-7-7-7-7-7-7-7--------|
Ab|--2--0--2--5--0---2--0--2---5--0--3-3-3-3-3-3-3-3--5-5-5-5-5-5-5-5--5--5--|
Db|--2--0--2--5--0---2--0--2---5--0------------------------------------5--5--|
                                                                             |
Intro: Guitar 2 (Distorted)                                                  |
Eb|--7---7---7---7---7---7---7---7---3---3---3---3----2---2---2---2----5--5--|
Bb|--| Hold a 1/4 bend on the 7’s |------------------------------------------|
Gb|--------------------------------------------------------------------------|
Db|--------------------------------------------------------------------------|
Ab|--------------------------------------------------------------------------|
Db|--------------------------------------------------------------------------|

Verse 1: Tater Guitar 1 (clean with effects)
Eb|--12*---------------------------------------------------------0-----------|
Bb|--12*---------------------------------------3--------1--------1-----------|
Gb|--12*---------------------------------------------------------------------|
Db|--------------------------------------------------------------------------|
Ab|--------------------------------------------------------------------------|
Db|--------------------------------------------------------------------------|
                                                                             |
Verse 1: Matt Guitar 2 (Distorted & palm muted)                              |
Eb|--------------------------------------------------------------------------|
Bb|--------------------------------------------------------------------------|
Gb|--------------------------------------------------------------------------|
Db|--------------------------------------------------------------------------|
Ab|--2-2-2-2-2-2-2-2-2-2-2-2-2-2-2-2--5-5-5-5-5-5-5-5--7-7-7-7-7-7-7-7-------|
Db|--2-2-2-2-2-2-2-2-2-2-2-2-2-2-2-2--5-5-5-5-5-5-5-5--7-7-7-7-7-7-7-7-------|

Verse 1 Guitar 1 (clean with effects)
Eb|-(0)-----------------------------------------------------------0----------|
Bb|--0-----------------------------------------3--------1---------1----------|
Gb|--------------------------------------------------------------------------|
Db|--------------------------------------------------------------------------|
Ab|--------------------------------------------------------------------------|
Db|--------------------------------------------------------------------------|
                                                                             |
Verse 1: Matt Guitar 2 (Distorted & palm muted)                              |
Eb|--------------------------------------------------------------------------|
Bb|--------------------------------------------------------------------------|
Gb|--------------------------------------------------------------------------|
Db|--------------------------------------------------------------------------|
Ab|--2-2-2-2-2-2-2-2-2-2-2-2-2-2-2-2--5-5-5-5-5-5-5-5--7-7-7-7-7-7-7-7-------|
Db|--2-2-2-2-2-2-2-2-2-2-2-2-2-2-2-2--5-5-5-5-5-5-5-5--7-7-7-7-7-7-7-7-------|

Verse 1 Guitar 1 (clean with effects)
Eb|-(0)-----------------------------------------------------------0----------|
Bb|--0-----------------------------------------3--------1---------1----------|
Gb|--------------------------------------------------------------------------|
Db|--------------------------------------------------------------------------|
Ab|--------------------------------------------------------------------------|
Db|--------------------------------------------------------------------------|
                                                                             |
Verse 1: Matt Guitar 2 (Distorted & palm muted)                              |
Eb|--------------------------------------------------------------------------|
Bb|--------------------------------------------------------------------------|
Gb|--------------------------------------------------------------------------|
Db|--------------------------------------------------------------------------|
Ab|--2-2-2-2-2-2-2-2-2-2-2-2-2-2-2-2--5-5-5-5-5-5-5-5--7-7-7-7-7-7-7-7-------|
Db|--2-2-2-2-2-2-2-2-2-2-2-2-2-2-2-2--5-5-5-5-5-5-5-5--7-7-7-7-7-7-7-7-------|

Verse 1: Tater Guitar 1 (clean with effects)
Eb|--12*---------------------------------------------------------0-----------|
Bb|--12*---------------------------------------3--------1--------1-----------|
Gb|--------------------------------------------------------------------------|
Db|--------------------------------------------------------------------------|
Ab|--------------------------------------------------------------------------|
Db|--------------------------------------------------------------------------|
                                                                             |
Verse 1: Matt Guitar 2 (Distorted & palm muted)                              |
Eb|--------------------------------------------------------------------------|
Bb|--------------------------------------------------------------------------|
Gb|--------------------------------------------------------------------------|
Db|--------------------------------------------------------------------------|
Ab|--2-2-2-2-2-2-2-2-2-2-2-2-2-2-2-2--5-5-5-5-5-5-5-5--7-7-7-7-7-7-7-7-------|
Db|--2-2-2-2-2-2-2-2-2-2-2-2-2-2-2-2--5-5-5-5-5-5-5-5--7-7-7-7-7-7-7-7-------|

Pre Chorus: Guitar 1
Eb|-(0)----------------------------------------------------------0-----------|
Bb|--0-----------------------------------------3--------1--------1-----------|
Gb|--------------------------------------------------------------------------|
Db|--------------------------------------------------------------------------|
Ab|--------------------------------------------------------------------------|
Db|--------------------------------------------------------------------------|
                                                                             |
Pre Chorus: Guitar 2                                                         |
Eb|--------------------------------------------------------------------------|
Bb|--------------------------------------------------------------------------|
Gb|--------------------------------------------------------------------------|
Db|--------------------------------------------------------------------------|
Ab|--2-2-2-2-2-2-2-2-2-2-2-2-2-2-2-2--5-5-5-5-5-5-5-5-5-5-5-5-5-5-5-5--------|
Db|--2-2-2-2-2-2-2-2-2-2-2-2-2-2-2-2--5-5-5-5-5-5-5-5-5-5-5-5-5-5-5-5--------|

Pre Chorus: Guitar 1
Eb|--12*---------------------------------------------------------0-----------|
Bb|--12*---------------------------------------3--------1--------1-----------|
Gb|--------------------------------------------------------------------------|
Db|--------------------------------------------------------------------------|
Ab|--------------------------------------------------------------------------|
Db|--------------------------------------------------------------------------|
                                                                             |
Pre Chorus: Guitar 2                                                         |
Eb|--------------------------------------------------------------------------|
Bb|--------------------------------------------------------------------------|
Gb|--------------------------------------------------------------------------|
Db|--------------------------------------------------------------------------|
Ab|--2-2-2-2-2-2-2-2-2-2-2-2-2-2-2-2--5-5-5-5-5-5-5-5-5-5-5-5-5-5-5-5--------|
Db|--2-2-2-2-2-2-2-2-2-2-2-2-2-2-2-2--5-5-5-5-5-5-5-5-5-5-5-5-5-5-5-5--------|

Chorus: Guitar 1 (Distorted)
Eb|--------------------------------------------------------------------------|
Bb|--------------------------------------------------------------------------|
Gb|--------------------------------------------------------------------------|
Db|----------------------------------5-5-5-5-5-5-5-5--7-7-7-7-7-7-7-7--------|
Ab|--2--0--2--5--0---2--0--2---5--0--3-3-3-3-3-3-3-3--5-5-5-5-5-5-5-5--------|
Db|--2--0--2--5--0---2--0--2---5--0------------------------------------------|
                                                                             |
Chorus: Guitar 2 (Distorted)                                                 |
Eb|--7---7---7---7---7---7---7---7---3---3---3---3----5---5---5---5----------|
Bb|--| Hold a 1/4 bend on the 7’s |------------------------------------------|
Gb|--------------------------------------------------------------------------|
Db|--------------------------------------------------------------------------|
Ab|--------------------------------------------------------------------------|
Db|--------------------------------------------------------------------------|

Chorus: Guitar 1
Eb|--------------------------------------------------------------------------|
Bb|--------------------------------------------------------------------------|
Gb|--------------------------------------------------------------------------|
Db|----------------------------------5-5-5-5-5-5-5-5--7-7-7-7-7-7-7-7--------|
Ab|--2--0--2--5--0---2--0--2---5--0--3-3-3-3-3-3-3-3--5-5-5-5-5-5-5-5--5--5--|
Db|--2--0--2--5--0---2--0--2---5--0------------------------------------5--5--|
                                                                             |
Chorus: Guitar 2 (Distorted)                                                 |
Eb|--7---7---7---7---7---7---7---7---3---3---3---3----2---2---2---2----5--5--|
Bb|--| Hold a 1/4 bend on the 7’s |------------------------------------------|
Gb|--------------------------------------------------------------------------|
Db|--------------------------------------------------------------------------|
Ab|--------------------------------------------------------------------------|
Db|--------------------------------------------------------------------------|

Chorus: Guitar 1 (Distorted)
Eb|--------------------------------------------------------------------------|
Bb|--------------------------------------------------------------------------|
Gb|--------------------------------------------------------------------------|
Db|----------------------------------5-5-5-5-5-5-5-5--7-7-7-7-7-7-7-7--------|
Ab|--2--0--2--5--0---2--0--2---5--0--3-3-3-3-3-3-3-3--5-5-5-5-5-5-5-5--------|
Db|--2--0--2--5--0---2--0--2---5--0------------------------------------------|
                                                                             |
Chorus: Guitar 2 (Distorted)                                                 |
Eb|--7---7---7---7---7---7---7---7---3---3---3---3----5---5---5---5----------|
Bb|--| Hold a 1/4 bend on the 7’s |------------------------------------------|
Gb|--------------------------------------------------------------------------|
Db|--------------------------------------------------------------------------|
Ab|--------------------------------------------------------------------------|
Db|--------------------------------------------------------------------------|

Chorus: Guitar 1
Eb|--------------------------------------------------------------------------|
Bb|--------------------------------------------------------------------------|
Gb|--------------------------------------------------------------------------|
Db|----------------------------------5-5-5-5-5-5-5-5--7-7-7-7-7-7-7-7--------|
Ab|--2--0--2--5--0---2--0--2---5--0--3-3-3-3-3-3-3-3--5-5-5-5-5-5-5-5--5--5--|
Db|--2--0--2--5--0---2--0--2---5--0------------------------------------5--5--|
                                                                             |
Chorus: Guitar 2 (Distorted)                                                 |
Eb|--7---7---7---7---7---7---7---7---3---3---3---3----2---2---2---2----5--5--|
Bb|--| Hold a 1/4 bend on the 7’s |------------------------------------------|
Gb|--------------------------------------------------------------------------|
Db|--------------------------------------------------------------------------|
Ab|--------------------------------------------------------------------------|
Db|--------------------------------------------------------------------------|

Verse 2: Guitar 1
Eb|--------------------------------------------------------------0-----------|
Bb|--12----------------------------------------3--------1--------1-----------|
Gb|--12----------------------------------------------------------------------|
Db|-|1/4 bend |--------------------------------------------------------------|
Ab|--------------------------------------------------------------------------|
Db|--------------------------------------------------------------------------|
                                                                             |
Verse 2: Guitar 2                                                            |
Eb|--------------------------------------------------------------------------|
Bb|--------------------------------------------------------------------------|
Gb|--------------------------------------------------------------------------|
Db|--------------------------------------------------------------------------|
Ab|--2-2-2-2-2-2-2-2-2-2-2-2-2-2-2-2--5-5-5-5-5-5-5-5-5-5-5-5-5-5-5-5--------|
Db|--2-2-2-2-2-2-2-2-2-2-2-2-2-2-2-2--5-5-5-5-5-5-5-5-5-5-5-5-5-5-5-5--------|

Verse 2: Guitar 1
Eb|-(0)----12*---------------------------------------------------0-----------|
Bb|--0-----12*---------------------------------3--------1--------1-----------|
Gb|--------------------------------------------------------------------------|
Db|--------------------------------------------------------------------------|
Ab|--------------------------------------------------------------------------|
Db|--------------------------------------------------------------------------|
                                                                             |
Verse 2: Guitar 2                                                            |
Eb|--------------------------------------------------------------------------|
Bb|--------------------------------------------------------------------------|
Gb|--------------------------------------------------------------------------|
Db|--------------------------------------------------------------------------|
Ab|--2-2-2-2-2-2-2-2-2-2-2-2-2-2-2-2--5-5-5-5-5-5-5-5-5-5-5-5-5-5-5-5--------|
Db|--2-2-2-2-2-2-2-2-2-2-2-2-2-2-2-2--5-5-5-5-5-5-5-5-5-5-5-5-5-5-5-5--------|

Verse 2: Guitar 1
Eb|-(0)----------------------------------------------------------0-----------|
Bb|--0-----12*---------------------------------3--------1--------1-----------|
Gb|--------12*---------------------------------------------------------------|
Db|--------------------------------------------------------------------------|
Ab|--------------------------------------------------------------------------|
Db|--------------------------------------------------------------------------|
                                                                             |
Verse 2: Guitar 2                                                            |
Eb|--------------------------------------------------------------------------|
Bb|--------------------------------------------------------------------------|
Gb|--------------------------------------------------------------------------|
Db|--------------------------------------------------------------------------|
Ab|--2-2-2-2-2-2-2-2-2-2-2-2-2-2-2-2--5-5-5-5-5-5-5-5-5-5-5-5-5-5-5-5--------|
Db|--2-2-2-2-2-2-2-2-2-2-2-2-2-2-2-2--5-5-5-5-5-5-5-5-5-5-5-5-5-5-5-5--------|

Verse 2: Guitar1
Eb|-(0)----12*---------------------------------------------------0-----------|
Bb|--0-----12*---------------------------------3--------1--------1-----------|
Gb|--------------------------------------------------------------------------|
Db|--------------------------------------------------------------------------|
Ab|--------------------------------------------------------------------------|
Db|--------------------------------------------------------------------------|
                                                                             |
Verse 2: Guitar 2                                                            |
Eb|--------------------------------------------------------------------------|
Bb|--------------------------------------------------------------------------|
Gb|--------------------------------------------------------------------------|
Db|--------------------------------------------------------------------------|
Ab|--2-2-2-2-2-2-2-2-2-2-2-2-2-2-2-2--5-5-5-5-5-5-5-5-5-5-5-5-5-5-5-5--------|
Db|--2-2-2-2-2-2-2-2-2-2-2-2-2-2-2-2--5-5-5-5-5-5-5-5-5-5-5-5-5-5-5-5--------|

Pre Chorus: Guitar1
Eb|-(0)----------------------------------------------------------0-----------|
Bb|--0----12*----------------------------------3--------1--------1-----------|
Gb|--------------------------------------------------------------------------|
Db|--------------------------------------------------------------------------|
Ab|--------------------------------------------------------------------------|
Db|--------------------------------------------------------------------------|
                                                                             |
Per Chorus: Guitar 2                                                         |
Eb|--------------------------------------------------------------------------|
Bb|--------------------------------------------------------------------------|
Gb|--------------------------------------------------------------------------|
Db|--------------------------------------------------------------------------|
Ab|--2-2-2-2-2-2-2-2-2-2-2-2-2-2-2-2--5-5-5-5-5-5-5-5-5-5-5-5-5-5-5-5--------|
Db|--2-2-2-2-2-2-2-2-2-2-2-2-2-2-2-2--5-5-5-5-5-5-5-5-5-5-5-5-5-5-5-5--------|

Pre Chorus: Guitar 1
Eb|-(0)----------------------------------------------------------0-----------|
Bb|--0-----------------------------------------3--------1--------1-----------|
Gb|--------------------------------------------------------------------------|
Db|--------------------------------------------------------------------------|
Ab|--------------------------------------------------------------------------|
Db|--------------------------------------------------------------------------|
                                                                             |
Pre Chorus: Guitar 2                                                         |
Eb|--------------------------------------------------------------------------|
Bb|--------------------------------------------------------------------------|
Gb|--------------------------------------------------------------------------|
Db|--------------------------------------------------------------------------|
Ab|--2-2-2-2-2-2-2-2-2-2-2-2-2-2-2-2--5-5-5-5-5-5-5-5-5-5-5-5-5-5-5-5--------|
Db|--2-2-2-2-2-2-2-2-2-2-2-2-2-2-2-2--5-5-5-5-5-5-5-5-5-5-5-5-5-5-5-5--------|

Chorus: Guitar 1 (Distorted)
Eb|--------------------------------------------------------------------------|
Bb|--------------------------------------------------------------------------|
Gb|--------------------------------------------------------------------------|
Db|----------------------------------5-5-5-5-5-5-5-5--7-7-7-7-7-7-7-7--------|
Ab|--2--0--2--5--0---2--0--2---5--0--3-3-3-3-3-3-3-3--5-5-5-5-5-5-5-5--------|
Db|--2--0--2--5--0---2--0--2---5--0------------------------------------------|
                                                                             |
Chorus: Guitar 2 (Distorted)                                                 |
Eb|--7---7---7---7---7---7---7---7---3---3---3---3----5---5---5---5----------|
Bb|--| Hold a 1/4 bend on the 7’s |------------------------------------------|
Gb|--------------------------------------------------------------------------|
Db|--------------------------------------------------------------------------|
Ab|--------------------------------------------------------------------------|
Db|--------------------------------------------------------------------------|

Chorus: Guitar 1
Eb|--------------------------------------------------------------------------|
Bb|--------------------------------------------------------------------------|
Gb|--------------------------------------------------------------------------|
Db|----------------------------------5-5-5-5-5-5-5-5--7-7-7-7-7-7-7-7--------|
Ab|--2--0--2--5--0---2--0--2---5--0--3-3-3-3-3-3-3-3--5-5-5-5-5-5-5-5--5--5--|
Db|--2--0--2--5--0---2--0--2---5--0------------------------------------5--5--|
                                                                             |
Chorus: Guitar 2 (Distorted)                                                 |
Eb|--7---7---7---7---7---7---7---7---3---3---3---3----2---2---2---2----5--5--|
Bb|--| Hold a 1/4 bend on the 7’s |------------------------------------------|
Gb|--------------------------------------------------------------------------|
Db|--------------------------------------------------------------------------|
Ab|--------------------------------------------------------------------------|
Db|--------------------------------------------------------------------------|

Chorus: Guitar 1 (Distorted)
Eb|--------------------------------------------------------------------------|
Bb|--------------------------------------------------------------------------|
Gb|--------------------------------------------------------------------------|
Db|----------------------------------5-5-5-5-5-5-5-5--7-7-7-7-7-7-7-7--------|
Ab|--2--0--2--5--0---2--0--2---5--0--3-3-3-3-3-3-3-3--5-5-5-5-5-5-5-5--------|
Db|--2--0--2--5--0---2--0--2---5--0------------------------------------------|
                                                                             |
Chorus: Guitar 2 (Distorted)                                                 |
Eb|--7---7---7---7---7---7---7---7---3---3---3---3----5---5---5---5----------|
Bb|--| Hold a 1/4 bend on the 7’s |------------------------------------------|
Gb|--------------------------------------------------------------------------|
Db|--------------------------------------------------------------------------|
Ab|--------------------------------------------------------------------------|
Db|--------------------------------------------------------------------------|

Chorus: Guitar 1
Eb|--------------------------------------------------------------------------|
Bb|--------------------------------------------------------------------------|
Gb|--------------------------------------------------------------------------|
Db|----------------------------------5-5-5-5-5-5-5-5--7-7-7-7-7-7-7-7--------|
Ab|--2--0--2--5--0---2--0--2---5--0--3-3-3-3-3-3-3-3--5-5-5-5-5-5-5-5--5--5--|
Db|--2--0--2--5--0---2--0--2---5--0------------------------------------5--5--|
                                                                             |
Chorus: Guitar 2 (Distorted)                                                 |
Eb|--7---7---7---7---7---7---7---7---3---3---3---3----2---2---2---2----5--5--|
Bb|--| Hold a 1/4 bend on the 7’s |------------------------------------------|
Gb|--------------------------------------------------------------------------|
Db|--------------------------------------------------------------------------|
Ab|--------------------------------------------------------------------------|
Db|--------------------------------------------------------------------------|

Bridge: Tater Guitar 1 (Distorted)
Eb|--------------------------------------------------------------------------|
Bb|--------------------------------------------------------------------------|
Gb|--------------------------------------------------------------------------|
Db|--------------------------------------------------------------------------|
Ab|--3--p2--p0h2----3--p2--------0--3--p2--p0h2----5---5---4---4-------------|
Db|--3--p2--p0h2----3--p2--0-2h3----3--p2--p0h2----5---5---4---4-------------|
                                                                             |
Bridge: Matt Guitar 2 (Distorted)                                            |
Eb|--1--p0----------1--p0-----------1--p0----------3---3---2---2-------------|
Bb|--------------------------------------------------------------------------|
Gb|--------------------------------------------------------------------------|
Db|--------------------------------------------------------------------------|
Ab|--------------------------------------------------------------------------|
Db|--------------------------------------------------------------------------|

Bridge: Tater Guitar 1 (Distorted)
Eb|--------------------------------------------------------------------------|
Bb|--------------------------------------------------------------------------|
Gb|--------------------------------------------------------------------------|
Db|--------------------------------------------------------------------------|
Ab|--3--p2--p0h2----3--p2--------0----3--p2--p0h2----5---5---4---4-----------|
Db|--3--p2--p0h2----3--p2--0-2h3------3--p2--p0h2----5---5---4---4-----------|
                                                                             |
Bridge: Matt Guitar 2 (Distorted)                                            |
Eb|--1--p0----------1--p0-------------3-/5\2---------7--------5--------------|
Bb|-------------------------------------------------|1/4 bend|---------------|
Gb|--------------------------------------------------------------------------|
Db|--------------------------------------------------------------------------|
Ab|--------------------------------------------------------------------------|
Db|--------------------------------------------------------------------------|

Bridge: Tater Guitar 1 (Distorted)
Eb|--------------------------------------------------------------------------|
Bb|--------------------------------------------------------------------------|
Gb|--------------------------------------------------------------------------|
Db|--------------------------------------------------------------------------|
Ab|--3--p2--p0h2----3--p2--------0----3--p2--p0h2----5---5---4---4-----------|
Db|--3--p2--p0h2----3--p2--0-2h3------3--p2--p0h2----5---5---4---4-----------|
                                                                             |
Bridge: Matt Guitar 2 (Distorted)                                            |
Eb|--1--p0----------1--p0-------------1--p0----------3---3---2---2-----------|
Bb|--------------------------------------------------------------------------|
Gb|--------------------------------------------------------------------------|
Db|--------------------------------------------------------------------------|
Ab|--------------------------------------------------------------------------|
Db|--------------------------------------------------------------------------|

Bridge: Tater Guitar 1 (Distorted)
Eb|--------------------------------------------------------------------------|
Bb|--------------------------------------------------------------------------|
Gb|--------------------------------------------------------------------------|
Db|--------------------------------------------------------------------------|
Ab|--3--p2--p0h2----3--p2--------0----3--p2--p0h2----5---5---4---4-----------|
Db|--3--p2--p0h2----3--p2--0-2h3------3--p2--p0h2----5---5---4---4-----------|
                                                                             |
Bridge: Matt Guitar 2 (Distorted)                                            |
Eb|--1--p0----------1--p0-------------3-/5\2---------7-----------------------|
Bb|-------------------------------------------------|1/4 bend|---------------|
Gb|--------------------------------------------------------------------------|
Db|--------------------------------------------------------------------------|
Ab|--------------------------------------------------------------------------|
Db|--------------------------------------------------------------------------|

Chorus: Guitar 1 (Distorted)
Eb|--------------------------------------------------------------------------|
Bb|--------------------------------------------------------------------------|
Gb|--------------------------------------------------------------------------|
Db|----------------------------------5-5-5-5-5-5-5-5--7-7-7-7-7-7-7-7--------|
Ab|--2--0--2--5--0---2--0--2---5--0--3-3-3-3-3-3-3-3--5-5-5-5-5-5-5-5--------|
Db|--2--0--2--5--0---2--0--2---5--0------------------------------------------|
                                                                             |
Chorus: Guitar 2 (Distorted)                                                 |
Eb|--7---7---7---7---7---7---7---7---3---3---3---3----5---5---5---5----------|
Bb|--| Hold a 1/4 bend on the 7’s |------------------------------------------|
Gb|--------------------------------------------------------------------------|
Db|--------------------------------------------------------------------------|
Ab|--------------------------------------------------------------------------|
Db|--------------------------------------------------------------------------|

Chorus: Guitar 1
Eb|--------------------------------------------------------------------------|
Bb|--------------------------------------------------------------------------|
Gb|--------------------------------------------------------------------------|
Db|----------------------------------5-5-5-5-5-5-5-5--7-7-7-7-7-7-7-7--------|
Ab|--2--0--2--5--0---2--0--2---5--0--3-3-3-3-3-3-3-3--5-5-5-5-5-5-5-5--5--5--|
Db|--2--0--2--5--0---2--0--2---5--0------------------------------------5--5--|
                                                                             |
Chorus: Guitar 2 (Distorted)                                                 |
Eb|--7---7---7---7---7---7---7---7---3---3---3---3----2---2---2---2----5--5--|
Bb|--| Hold a 1/4 bend on the 7’s |------------------------------------------|
Gb|--------------------------------------------------------------------------|
Db|--------------------------------------------------------------------------|
Ab|--------------------------------------------------------------------------|
Db|--------------------------------------------------------------------------|

Chorus: Guitar 1 (Distorted)
Eb|--------------------------------------------------------------------------|
Bb|--------------------------------------------------------------------------|
Gb|--------------------------------------------------------------------------|
Db|----------------------------------5-5-5-5-5-5-5-5--7-7-7-7-7-7-7-7--------|
Ab|--2--0--2--5--0---2--0--2---5--0--3-3-3-3-3-3-3-3--5-5-5-5-5-5-5-5--------|
Db|--2--0--2--5--0---2--0--2---5--0------------------------------------------|
                                                                             |
Chorus: Guitar 2 (Distorted)                                                 |
Eb|--7---7---7---7---7---7---7---7---3---3---3---3----5---5---5---5----------|
Bb|--| Hold a 1/4 bend on the 7’s |------------------------------------------|
Gb|--------------------------------------------------------------------------|
Db|--------------------------------------------------------------------------|
Ab|--------------------------------------------------------------------------|
Db|--------------------------------------------------------------------------|

Chorus: Guitar 1
Eb|--------------------------------------------------------------------------|
Bb|--------------------------------------------------------------------------|
Gb|--------------------------------------------------------------------------|
Db|----------------------------------5-5-5-5-5-5-5-5--7-7-7-7-7-7-7-7--------|
Ab|--2--0--2--5--0---2--0--2---5--0--3-3-3-3-3-3-3-3--5-5-5-5-5-5-5-5--5--5--|
Db|--2--0--2--5--0---2--0--2---5--0------------------------------------5--5--|
                                                                             |
Chorus: Guitar 2 (Distorted)                                                 |
Eb|--7---7---7---7---7---7---7---7---3---3---3---3----2---2---2---2----5--5--|
Bb|--| Hold a 1/4 bend on the 7’s |------------------------------------------|
Gb|--------------------------------------------------------------------------|
Db|--------------------------------------------------------------------------|
Ab|--------------------------------------------------------------------------|
Db|--------------------------------------------------------------------------|

Outro: Tater Guitar 1 (Distorted)
Eb|--------------------------------------------------------------------------|
Bb|--------------------------------------------------------------------------|
Gb|--------------------------------------------------------------------------|
Db|--------------------------------------------------------------------------|
Ab|--3--p2--p0h2----3--p2--------0--3--p2--p0h2----5---5---4---4-------------|
Db|--3--p2--p0h2----3--p2--0-2h3----3--p2--p0h2----5---5---4---4-------------|
                                                                             |
Outro: Matt Guitar 2 (Distorted)                                             |
Eb|--1--p0----------1--p0-----------1--p0----------3---3---2---2-------------|
Bb|--------------------------------------------------------------------------|
Gb|--------------------------------------------------------------------------|
Db|--------------------------------------------------------------------------|
Ab|--------------------------------------------------------------------------|
Db|--------------------------------------------------------------------------|

Outro: Tater Guitar 1 (Distorted)
Eb|--------------------------------------------------------------------------|
Bb|--------------------------------------------------------------------------|
Gb|--------------------------------------------------------------------------|
Db|--------------------------------------------------------------------------|
Ab|--3--p2--p0h2----3--p2--------0--3--p2--p0h2----5---5---4---4-------------|
Db|--3--p2--p0h2----3--p2--0-2h3----3--p2--p0h2----5---5---4---4-------------|
                                                                             |
Outro: Matt Guitar 2 (Distorted)                                             |
Eb|--1--p0----------1--p0-----------1--p0----------3---3---2---2-------------|
Bb|--------------------------------------------------------------------------|
Gb|--------------------------------------------------------------------------|
Db|--------------------------------------------------------------------------|
Ab|--------------------------------------------------------------------------|
Db|--------------------------------------------------------------------------|

Finished!
            
Submit corrections

comments powered by Disqus
↑ Back to top | 10 Years Tabs for 11 00 Am Daydreamer. Lyrics for acoustic guitar and electric guitar. Tablatures and chords are parodies/interpretations of the original songs. You may use it for private study, scholarship, research or language learning purposes only