>
 >
Sana

Sana Guitar Tabs

1017 - Sana chords, tabs, tablatures, lyrics

Guitar lessons | Add/correct | Request | Top 50 tabs Artists:  A B C D E F G H I J K L M N O P Q R S T U V W X Y Z 0-9

Sana Guitar Tabs – 1017

CD, Sheet music, Poster

Do you like Sana? Share with your friends now
ChordsChords v2Chords v3TabsTabs v2Ukulele
SONG TITLE    : Sana
ARTIST        : 1017
DISCRIPTION   :

NOTE          : Ang totoong tuning ng kantang to..!!
                ay Half-Step Down..
                Pero Standard ang TAB na to..
                Para ito sa mga gumagamit nang Standard..

INTRO:

  Clean Tone.. No Distortion..
  Rythym Guitar:..

e|----------------------------------------------------------|
B|----------------------------------------------------------|
G|----------------------------------------------------------|
D|---6---6---6--6--6--4--4--4--4--3--4--4\--1---1---1--1--1-|
A|---x---x---x--x--x--x--x--x--x--x--x--x\--x---x---x--x--x-|
E|---4---4---4--4--4--2--2--2--2--1--2--2---Eb--------------|

e|----------------------------------------------------------|
B|----------------------------------------------------------|
G|----------------------------------------------------------|
D|-3--3--3--1--1--1-1---4---4---4--4--4--6--6--6---4---4--4-|
A|-x--x--x--x--x--x-x---x---x---x--x--x--x--x--x---x---x--x-|
E|-1--1--1--------------2---2---2--2--2--4--4--4---2---2--2-|

e|-----------------------------------------|
B|-----------------------------------------|
G|-----------------------------------------|
D|-4--x-6---6----6--6--3---3--3--4---4--4--|
A|-x--x-4---4----4--4--x---x--x--x---x--x--|
E|-2-------------------1---1--1--2---2--2--|

  Lead Guitar: # - Pasok..

e|----------------------------------------------------------|
B|----------------------------------------------------------|
G|----------------------------------------------------------|
D|---6---6---6--6--6--4--4--4--4--3--4--4-\-1---1---1--1--1-|
A|----------------------------------------------------------|
E|----------------------------------------------------------|

e|----------------------------------------------------------|
B|----------------------------------------------------------|
G|----------------------------------------------------------|
D|-3--3--3--1--1--1-1---4---4---4--4--4--6--6--6---4---4--4-|
A|----------------------------------------------------------|
E|----------------------------------------------------------|

e|--------------------------------------------|
B|--------------------------------------------|
G|--------------------------------------------|
D|-4----3---3----3--3--4---4--4--6---6--6~~~--|
A|--------------------------------------------|
E|--------------------------------------------|


VERSE:

F#                 Ebm                          B
  Di ko talaga alam,  kung bakit ka naman ganyan
    C#
  mata ay luhaan
F#                   Ebm                          B
  Di ba't sabi ko sayo, wag na wag ka nang paloloko
     C#
  sa boyfriend mo nang mukhang gago.


REFRAIN:

  B          F#         B          F#
  Di mo ba nakikita at di ka ba nagsasawa?
   B           F#             G#m        C#
  Ano ba ang nasa kanya na sa akin ay wala.


CHORUS:

F#                    Ebm            B
  Sana ay 'yong mapansin.... ang sasabihin
       C#
  na sayo'y may pagtingin.
F#                   Ebm                B
  Kahit na saktan kanya... wag kang mag-alala.
      C#
  nandito lang ako para sa'yo.

REPEAT:
      : INTRO - # 1x


VERSE:

F#               Ebm                                   B
  Di ko maintindihan, kung bakit siya ang 'yong nagustuhan
    C#
  Kahit ika'y sinasaktan.
F#                  Ebm                        B
  Ako nama'y nagtataka, bakit say ako'y naging tanga
    C#
  Kahit sayo'y walang pag-asa.

REPEAT:
      : REFRAIN
      : CHORUS


SOLO:
     --F#----Ebm---B-----C#-----(2X)


e|--------------------------------------------------------|
B|--------------------------------------------------------|
G|--------------8---6----------------8---6----------------|
D|------6-h8------------------6-h8------------9------8br--|
A|--/9-------------------/9-------------------------------|
E|--------------------------------------------------------|


e|--------------------------------------------------------|
B|--------------------------------------------------------|
G|------------------------------------------10---11---13--|
D|--------------------------------11---13-----------------|
A|-6---9~~~---------9---11---13---------------------------|
E|--------------------------------------------------------|

                                     AH
e|--------------------------------------------------------|
B|--------------------------------------------------------|
G|--10--11br~~--------10--13------------------------------|
D|----------------------------11-----13b===~~~~~---r11~~~-|
A|--------------------------------------------------------|
E|--------------------------------------------------------|


e|----14----13----11----9---------14-11--------------------|
B|--------------------------------------11-----------------|
G|-----------------------------------------11--8-h10-h11~~-|
D|---------------------------------------------------------|
A|---------------------------------------------------------|
E|----14----13----11----9----------------------------------|


e|--------------------14-18-14----------------------------11-|
B|-----------------14----------14----------------------11----|
G|--------------15----------------15----------------11-------|
D|-----------16----------------------16----------------------|
A|--------16----------------------------16-------------------|
E|-----14----------------------------------14br~~------------|


e|-13--14--13--14------13------13-------------|
B|-----------------14------14------11~~~~\----|
G|--------------------------------------------|
D|--------------------------------------------|
A|--------------------------------------------|
E|--------------------------------------------|


e|------------------------------------------------|
B|--/9---/11----12--11---9-----7-h9---9~~~--------|
G|------------------------------------------------|
D|------------------------------------------------|
A|------------------------------------------------|
E|------------------------------------------------|


e|--------------------------------------------------------|
B|--------------------------------------------------------|
G|------------------------------0h11h13-----------0h11h13-|
D|---------------------0h11h13-----------0h11h13----------|
A|----------11-13-14--------------------------------------|
E|-11-13-14-----------------------------------------------|


e|----------------------------------------------------------|
B|----------------------------------------------------------|
G|-----------0h11h13---0h3h4--0h4h6--0h6h8--0h8h10--0h10h11-|
D|-0h11h13--------------------------------------------------|
A|----------------------------------------------------------|
E|----------------------------------------------------------|


e|--------------------------14-11----14~~~~---------|
B|-----------------------11-------11----------------|
G|-0h11h13--0h13h15---11----------------------------|
D|--------------------------------------------------|
A|--------------------------------------------------|
E|--------------------------------------------------|

REPEAT:
      : REFRAIN
      : CHORUS


OUTRO:
      Play and Repeat this Chords
      F#----Ebm---B-----C#-----

  Para sa'yo.

  Dahil nadito lang ako para sa'yo

  Para sa'yo.

  Para sa'yo.
             F#=====
  Para sa'yo.

Tablature Legend:

  h      -- hammer on
  p      -- pull off
  b      -- bend
  r      -- bend release
  ===    -- bend hold or maintain
  ^      -- bend a little, or dec/increase the bend slightly
  /,\    -- slide (toward, forward)
  ~      -- let ring
  x      -- Muted string then pick it
  AH     -- Artificial Harmonic
  TH     -- Tap Harmonic
  NH     -- Natural Harmonic
  PM     -- Palm Muted
  T      -- Tap
  t      -- Use your picking finger to create pull-off's, hammer-on's
  Tr     -- Trill

                Calinan Davao City, Phillipines...

                ---Salamat kay----| Kopya ko lang LYRICS nyo.. haha.
                ---ajhell_vhert---|  Tinatamad akong mag-hanap eh.!!
                ---STATIX Band----|
                ------AvH80-------|
                        ....ASTIG TALAGA PAG LOKAL....





Comments


Popular 1017 tabs & chords
Charing Bass Tabs
Berting Chords
Charing Chords
Charing 1 Chords
Sana Chords
Textmate Chords
Sana 2 Tabs
Seloso 1 Tabs
Sana Ukulele
Textmate Ukulele


Song lyrics



↑ Back to top | Tablatures and chords are parodies/interpretations of the original songs. You may use it for private study, scholarship, research or language learning purposes only
© 2014 AZChords.com Contact us | Privacy policy | DMCA | Add/correct tabs | Request tabs | Top 50 tabs