» » »

Zz Top - Nasty Dogs And Funky Kings Bass

Artists:  A B C D E F G H I J K L M N O P Q R S T U V W X Y Z # 

Nasty Dogs And Funky Kings Bass

(ver. 2) Click to play this song!
Zz Top
 Rating:
4/5 (4 votes)


 Nasty Dogs And Funky Kings lessons Tabs too difficult? Try these video lessons and learn fast
 
                Band: ZZ Top


     W                E     S S S S S S S E.  E  E  S S  
G||----------------------|------------------------------|
D||----------------------|----------------3-------------|
A||----------------------|------0---3-2-0-------------0-|
E||----------------------|--0-3---3-----------0--3--4---|


  S S S S S S S S S S S S S S S S    S S S S S S S S S S S S S S S S  
----------------------------------|----------------------------------|
----------------------------------|----------------------------------|
--0-0-0-0-0-0-0-0-0-0-0-0-0-0-0-0-|--0-0-0-0-0-0-0-0-0-0-0-0-0-0-0-0-|
----------------------------------|----------------------------------|


  S S S S S S S S S S S S S S S S    S S S S S S S S S S S S S S S S  
----------------------------------|----------------------------------|
----------------------------------|----------------------------------|
--0-0-0-0-0-0-0-0-0-0-0-0-0-0-0-0-|--0-0-0-0-0-0-0-0-0-0-0-0-0-0-0-0-|
----------------------------------|----------------------------------|


  S S S S S S S S S S S S S S S S    S S S S S S S S  S S S S S S S S  
----------------------------------|-----------------------------------|
----------------------------------|------------------/7-5---5---------|
--0-0-0-0-0-0-0-0-0-0-0-0-0-0-0-0-|--0-0-0-0-0-0-0-0------7---7-6-5---|
----------------------------------|---------------------------------0-|


  S S S S S S S S S S S S S S S S    S S S S S S S S S S S S S S S S  
----------------------------------|----------------------------------|
----------------------------------|----------------------------------|
----------------------------------|--0-0-0-0-0-0-0-0-0-0-0-0-0-0-0-0-|
--0-0-0-0-0-0-0-0-0-0-0-0-0-0-0-0-|----------------------------------|


  S S S S S S S S S S S S S S S S    W                 
----------------------------------|-------------------|
----------------------------------|-------------------|
--0-0-0-0-0-0-0-0-0-0-0-0-0-0-0-0-|-------------------|
----------------------------------|-------------------|


  S S S S S S S E.  E  E  S S    S S S S S S S S S S S S S S S S  
------------------------------|----------------------------------|
----------------3-------------|----------------------------------|
------0---3-2-0-------------0-|--0-0-0-0-0-0-0-0-0-0-0-0-0-0-0-0-|
--0-3---3-----------0--3--4---|----------------------------------|


  S S S S S S S S S S S S S S S S    S S S S S S S S S S S S S S S S  
----------------------------------|----------------------------------|
----------------------------------|----------------------------------|
--0-0-0-0-0-0-0-0-0-0-0-0-0-0-0-0-|--0-0-0-0-0-0-0-0-0-0-0-0-0-0-0-0-|
----------------------------------|----------------------------------|


  S S S S S S S S S S S S S S S S    S S S S S S S S S S S S S S S S  
----------------------------------|----------------------------------|
----------------------------------|----------------------------------|
--0-0-0-0-0-0-0-0-0-0-0-0-0-0-0-0-|--0-0-0-0-0-0-0-0-0-0-0-0-0-0-0-0-|
----------------------------------|----------------------------------|


  S S S S S S S S  S S S S S S S S    S S S S S S S S S S S S S S S S  
-----------------------------------|----------------------------------|
------------------/7-5---5---------|----------------------------------|
--0-0-0-0-0-0-0-0------7---7-6-5---|----------------------------------|
---------------------------------0-|--0-0-0-0-0-0-0-0-0-0-0-0-0-0-0-0-|


  S S S S S S S S S S S S S S S S    S S S S S S S S S S S S S S S S  
----------------------------------|----------------------------------|
----------------------------------|----------------------------------|
--0-0-0-0-0-0-0-0-0-0-0-0-0-0-0-0-|--0-0-0-0-0-0-0-0-0-0-0-0-0-0-0-0-|
----------------------------------|----------------------------------|


  W                   S S S S S S S H        S  
-------------------|---------------------------|
-------------------|----------------3--------L-|
-------------------|------0---3-2-0------------|
-------------------|--0-3---3------------------|


  S S S S S S S S S S S S S S S S    S S S S S S S S S S S S S S S S  
----------------------------------|----------------------------------|
----------------------------------|----------------------------------|
--3-0---0-3-0---0-L-0-0-0-0-----0-|--3-0---0-3-0---0-L-0-0-0-0-----0-|
------3-------3-------------0-3---|------3-------3-------------0-3---|


  S S S S S S S S S S S S S S S S    S S S S S S S S S S S S S S S S  
----------------------------------|----------------------------------|
----------------------------------|----------------------------------|
--3-0---0-3-0---0-L-0-0-0-0-----0-|--3-0---0-3-0---0-L-0-0-0-0-----0-|
------3-------3-------------0-3---|------3-------3-------------0-3---|


  S S S S S S S S S S S S S S S S    S S S S S S S S S S S S S S S S  
----------------------------------|----------------------------------|
----------------------------------|----------------------------------|
--3-0---0-3-0---0-L-0-0-0-0-----0-|--3-0---0-3-0---0-L-0-0-0-0-----0-|
------3-------3-------------0-3---|------3-------3-------------0-3---|


  S S S S S S S S S S S S S S S S    S S S S S S S S S S S S S S S S  
----------------------------------|----------------------------------|
----------------------------------|----------------------------------|
--3-0---0-3-0---0-L-0-0-0-0-----0-|--3-0---0-3-0---0-L-0-0-0-0-----0-|
------3-------3-------------0-3---|------3-------3-------------0-3---|


  S S S S S S S S  S S S S S S S S    S S S S S S S S S S S S S S S S  
-----------------------------------|----------------------------------|
------------------/7-5---5---------|----------------------------------|
--3-0---0-3-0----------7---7-6-5---|----------------------------------|
------3-------3------------------0-|--0-0-0-0-0-0-0-0-0-0-0-0-0-0-0-0-|


  S S S S S S S S S S S S S S S S    S S S S S S S S S S S S S S S S  
----------------------------------|----------------------------------|
----------------------------------|----------------------------------|
--3-0---0-3-0---0-L-0-0-0-0-----0-|--3-0---0-3-0---0-L-0-0-0-0-----0-|
------3-------3-------------0-3---|------3-------3-------------0-3---|


  S S S S S S S S S S S S S S S S    S S S S S S S S S S S S S S S S  
----------------------------------|----------------------------------|
----------------------------------|----------------------------------|
--3-0---0-3-0---0-L-0-0-0-0-----0-|--3-0---0-3-0---0-L-0-0-0-0-----0-|
------3-------3-------------0-3---|------3-------3-------------0-3---|


  S S S S S S S S S S S S S S S S    S S S S S S S S S S S S S S S S  
----------------------------------|----------------------------------|
----------------------------------|----------------------------------|
--3-0---0-3-0---0-L-0-0-0-0-----0-|--3-0---0-3-0---0-L-0-0-0-0-----0-|
------3-------3-------------0-3---|------3-------3-------------0-3---|


  S S S S S S S S S S S S S S S S    S S S S S S S S  S S S S S S S S  
----------------------------------|-----------------------------------|
----------------------------------|------------------/7-5---5---------|
--3-0---0-3-0---0-L-0-0-0-0-----0-|--3-0---0-3-0----------7---7-6-5---|
------3-------3-------------0-3---|------3-------3------------------0-|


  S S S S S S S S S S S S S S S S    S S S S S S S S S S S S S S S S  
----------------------------------|----------------------------------|
----------------------------------|----------------------------------|
----------------------------------|--3-0---0-3-0---0-L-0-0-0-0-----0-|
--0-0-0-0-0-0-0-0-0-0-0-0-0-0-0-0-|------3-------3-------------0-3---|


  S S S S S S S S S S S S S S S S    S S S S S S S S S S S S S S S S  
----------------------------------|----------------------------------|
----------------------------------|----------------------------------|
--3-0---0-3-0---0-L-0-0-0-0-----0-|--3-0---0-3-0---0-L-0-0-0-0-----0-|
------3-------3-------------0-3---|------3-------3-------------0-3---|


  S S S S S S S S S S S S S S S S    S S S S S S S S S S S S S S S S  
----------------------------------|----------------------------------|
----------------------------------|----------------------------------|
--3-0---0-3-0---0-L-0-0-0-0-----0-|--3-0---0-3-0---0-L-0-0-0-0-----0-|
------3-------3-------------0-3---|------3-------3-------------0-3---|


  S S S S S S S S S S S S S S S S  
----------------------------------|
----------------------------------|
--3-0---0-3-0---0-L-0-0-0-0-----0-|
------3-------3-------------0-3---|


  Original fades out.  Improvised ending.                                
  S                                       S S S S S S S S S S S S S S S  
------------------------------------------------------------------------|
------------------------------------------------------------------------|
--3---------------------------------------0---0-3-0---0-L-0-0-0-0-----0-|
--------------------------------------------3-------3-------------0-3---|


  W                  
-------------------||
-------------------||
-------------------||
-------------------||




Duration Legend
---------------
W - whole
H - half
Q - quarter
E - 8th
S - 16th
T - 32nd
X - 64th
. - note dotted
|-n-|  - n-tuplets


Tablature Legend
----------------
L - tied note
x - dead note
g - grace note
(n) - ghost note
> - accentuded note
NH - natural harmonic
AH - artificial harmonic
TH - tapped harmonic
SH - semi harmonic
PH - pitch harmonic
h - hammer on
p - pull off
b - bend
br - bendRelease
pb - preBend
pbr - preBendRelease
brb - bendReleaseBend
\n/ - tremolo bar dip
\n - tremolo bar dive
-/n - tremolo bar Release up
/n\ - tremolo bar inverted dip
/n - tremolo bar return
-\n - tremolo bar Release down
S - shift slide
s - legato slide
/ -  slide into from below or out of upwards
\ -  slide into from above or out of downwards
~ - vibrato
W - wide vibrato
tr - trill
TP - tremolo picking
T - tapping
S - slap
P - pop
< - fade in
^ - brush up
v - brush down
            
Submit corrections



        Nasty Dogs And Funky Kings lessons Hard to play? Try these video lessons and learn fast Nasty Dogs And Funky Kings lessons
        
↑ Back to top | Tablatures and chords for acoustic guitar and electric guitar, ukulele, drums are parodies/interpretations of the original songs. You may use it for private study, scholarship, research or language learning purposes only