» » »

Zz Top - La Grange Bass

Artists:  A B C D E F G H I J K L M N O P Q R S T U V W X Y Z # 

La Grange Bass

(ver. 3) Click to play this song!
Zz Top
 Rating:
4/5 (4 votes)


 La Grange lessons Tabs too difficult? Try these video lessons and learn fast
 
                Standard Tuning.
Fingers. 


after gtr intro
G|-----------------------|
D|*---------------------*|
A|*---------------3-5-3-*|
E|--5-5-5-5-5-5-5--------|
   

2nd part
G|-----------------------|
D|*---------------1-3-1-*|
A|*-3-3-3-3-3-3-3--------|
E|-----------------------|  

break
G|----------|---------2--|
D|*5-r-4-r-3|-----------*|
A|*---------|---0-2-4---*|
E|----------|------------|
   

this until it fades out
G|-----------------------|
D|*---------------------*|
A|*--3--3--3--3-5-3-----*|
E|--5--5--5--------------|
       
            
Submit corrections



        La Grange lessons Hard to play? Try these video lessons and learn fast La Grange lessons
        
↑ Back to top | Tablatures and chords for acoustic guitar and electric guitar, ukulele, drums are parodies/interpretations of the original songs. You may use it for private study, scholarship, research or language learning purposes only