» » »

Young Rebel Set - If I Was Tabs

Artists:  A B C D E F G H I J K L M N O P Q R S T U V W X Y Z # 

If I Was Tabs

(ver. 1) Click to play this song!
Young Rebel Set
 Rating:
4/5 (4 votes)


 If I Was lessons Tabs too difficult? Try these video lessons and learn fast
 
                Not a very difficult solo but it sounds great and it's an awesome song.
Capo 3rd fret, tabs in reference to Capo.

e|------------------------------------------------------|
B|-----5---5---------5-----5---------\8-8-8--6-5-55-----|
G|-----5---5---------5-----5---------\9-9-9--7-5-55-----|
D|-5h7---7---5--5h7-----7----5-5h7----------------------|
A|------------------------------------------------------|
E|------------------------------------------------------|

e|------------------------------------------------------|
B|--------\8-8-88-10-10-1010-101010--8-8-88--6-6-6s8s6--|
G|--------\9-9-99-10-10-1010-101010--9-9-99--7-7-7s9s7--|
D|-5-5h7------------------------------------------------|
A|------------------------------------------------------|
E|------------------------------------------------------|

e|------------------------------------------------------|
B|-5-5-5---5-5-5---6-6--8-6-5-55------------------------|
G|-5-5-5---5-5-5---7-7--9-7-5-55------------------------|
D|------5-------7------------------5p3------------------|
A|----------------------------------------5p3-----------|
E|-----------------------------------------------5p3----|

This is my first tab, enjoy.
            
Submit corrections



        If I Was lessons Hard to play? Try these video lessons and learn fast If I Was lessons
        
↑ Back to top | Tablatures and chords for acoustic guitar and electric guitar, ukulele, drums are parodies/interpretations of the original songs. You may use it for private study, scholarship, research or language learning purposes only