» » »

You Me At Six - Stay With Me Bass

Artists:  A B C D E F G H I J K L M N O P Q R S T U V W X Y Z # 

Stay With Me Bass

(ver. 1) Click to play this song!
You Me At Six
 Rating:
4/5 (4 votes)


 Stay With Me lessons Tabs too difficult? Try these video lessons and learn fast
 
                ------------------------------------------------------------------------------------------------
                                 You Me At Six - Stay With Me
------------------------------------------------------------------------------------------------

Tuning: Drop D

 Intro:
|-----------------|-----------------|-----------------|-----------------|     -----------------|
|-----------------|-----------------|-----------------|-----------------| 2x  -----------------|
|-5-5-5-5-5-5-5-5-|-3-3-3-3-3-3-3-3-|-1-1-1-1-1-1-1-1-|-1-1-1-1-1-1-1-1-|     -5---------------|
|-----------------|-----------------|-----------------|-----------------|     -----------------|

 Verse:
|-----------7-----|-----------5-----|-----------3-----|-----------------|     -----------------|
|-------------7---|-------------5---|-------------3---|-------------3---| 4x  -----------------|
|-5-----5-------5-|-3-----3-------3-|-1-----1-------1-|-1-----1---1---1-|     -5---------------|
|-----------------|-----------------|-----------------|-----------------|     -----------------|

 Chorus:
|-----------------|-----------------|-----------------|-----------------| 
|-----------------|-----------------|-----------------|-----------------| 
|-5-5-5-5-5-5-5-5-|-3-3-3-3-3-3-3-3-|-1-1-1-1-1-1-1-1-|-1-1-1-1-1-1-1-1-|
|-----------------|-----------------|-----------------|-----------------|     

|-----------------|-----------------|-----------------|-----------------| 
|-----------------|-3-3-3-3-3-3-3-3-|-----------------|-----------------| 
|-5-5-5-5-5-5-5-5-|-----------------|-1-1-1-1-1-1-1-1-|-1-1-1-1-1-1-1-1-|
|-----------------|-----------------|-----------------|-----------------|   

 Verse:
|---------------7-|---------------5-|---------------3-|-----------3-----|     -----------------|
|-------------7---|-------------5---|-------------3---|-------------3---| 4x  -----------------|
|-5-----5---5-----|-3-----3---3-----|-1-----1---1-----|-1-----1-------1-|     -----------------|
|-----------------|-----------------|-----------------|-----------------|     -0-------0-0-0-0-|

 Chorus: 2x
|-----------------|-----------------|-----------------|-----------------| 
|-----------------|-----------------|-----------------|-----------------| 
|-5-5-5-5-5-5-5-5-|-3-3-3-3-3-3-3-3-|-1-1-1-1-1-1-1-1-|-1-1-1-1-1-1-1-1-|
|-----------------|-----------------|-----------------|-----------------|     

|-----------------|-----------------|-----------------|-----------------| 
|-----------------|-3-3-3-3-3-3-3-3-|-----------------|-----------------| 
|-5-5-5-5-5-5-5-5-|-----------------|-1-1-1-1-1-1-1-1-|-1-1-1-1-1-1-1-1-|
|-----------------|-----------------|-----------------|-----------------|   

Bridge:
|-----------------|-----------------|-----------------|-----------------|
|-----------------|-----------------|-----------------|-----------------| 4x
|-----------------|-----------------|-----------------|-----------------|
|-3-3-3-3-3-3-3-3-|-5-5-5-5-5-5-5-5-|-0-0-0-0-0-0-0-0-|-0-0-0-0-0-0-0-0-|

Chorus: 2x
|-----------------|-----------------|-----------------|-----------------| 
|-----------------|-----------------|-----------------|-----------------| 
|-5-5-5-5-5-5-5-5-|-3-3-3-3-3-3-3-3-|-1-1-1-1-1-1-1-1-|-1-1-1-1-1-1-1-1-|
|-----------------|-----------------|-----------------|-----------------|     

|-----------------|-----------------|-----------------|-----------------| 
|-----------------|-3-3-3-3-3-3-3-3-|-----------------|-----------------| 
|-5-5-5-5-5-5-5-5-|-----------------|-1-1-1-1-1-1-1-1-|-1-1-1-1-1-1-1-1-|
|-----------------|-----------------|-----------------|-----------------|   

|----------------|
|----------------|
|----------------|
|-0--------------|
            
Submit corrections



        Stay With Me lessons Hard to play? Try these video lessons and learn fast Stay With Me lessons
        
↑ Back to top | Tablatures and chords for acoustic guitar and electric guitar, ukulele, drums are parodies/interpretations of the original songs. You may use it for private study, scholarship, research or language learning purposes only