» » »

You Me At Six - Kiss And Tell Bass

Artists:  A B C D E F G H I J K L M N O P Q R S T U V W X Y Z # 

Kiss And Tell Bass

(ver. 2) Click to play this song!
You Me At Six
 Rating:
4/5 (4 votes)


 Kiss And Tell lessons Tabs too difficult? Try these video lessons and learn fast
 
                This is my first tab, so be gentle, but im almost 100% sure its correct!
Standard Tuning : EADG


Intro: Just Guitar (x6)

....In your hair.....
G-------------------------------------------|
D-------------------------------------------|
A-------------------------------------------| (x4)
E---5~---5~---5~---5~-----------------------|


Chorus:
....kiss and tell...
G-----------------------------------------|
D-----------------------------------------|
A-----------------------------------------| (x2)
E---1111--8-8-8-8--3333--5-5-5-5----------|

The 8's And 5's you play a little slower

Verse:
....you make the rules...
G-----------------------------------------|
D-----------------------------------------|
A-----------------------------------------| (X8)
E---55--88--11--33--55--------------------|

This time go straight into the chorus.

Chorus:
...kiss and tell....
G-----------------------------------------|
D-----------------------------------------|
A-----------------------------------------| (x4)
E---1111--8-8-8-8--3333--5-5-5-5~---------|

Let last note ring.

The first 3 are just the guitar, come in the same time as the drums!

...I know you dont need to tell me....
G-----------------------------------------|
D-----------------------------------------|
A-----------------------------------------| (x1)
E--55-------------------------------------|

...I Know you dont need to tell me....
G-----------------------------------------|
D-----------------------------------------|
A-----------------------------------------| (x1)
E--11-------------------------------------|

...I know you dont need to tell me...
G-----------------------------------------|
D-----------------------------------------|
A-----------------------------------------| (x4)
E--33-------------------------------------|

...I know you dont need to tell me...
G-----------------------------------------|
D-----------------------------------------|
A-----------------------------------------| (x1)
E--11-------------------------------------|

...I know you dont need to tell me...
G-----------------------------------------|
D-----------------------------------------|
A-----------------------------------------| (x1)
E--33-------------------------------------|

When it starts to properley breakdown you do this.

...I know you dont...
G-----------------------------------------|
D-----------------------------------------|
A-----------------------------------------|
E--55555-55555---33333-33333--------------|

...need to tell me...                           (x2)
G-----------------------------------------|
D-----------------------------------------|
A-----------------------------------------|
E--4444-4444-4444-4444--------------------|

KISS AND TELL

Chorus:
...everybody else
G-----------------------------------------|
D-----------------------------------------|
A-----------------------------------------|
E--3333--5555-----------------------------|

G-----------------------------------------|
D-----------------------------------------|
A-----------------------------------------| (x3)
E---1111--8-8-8-8--3333--5-5-5-5----------|

I play bass, And it sounds right to me,
So hope you enjoy!
            
Submit corrections



        Kiss And Tell lessons Hard to play? Try these video lessons and learn fast Kiss And Tell lessons
        
↑ Back to top | Tablatures and chords for acoustic guitar and electric guitar, ukulele, drums are parodies/interpretations of the original songs. You may use it for private study, scholarship, research or language learning purposes only