» » »

Yo La Tengo - Stockholm Syndrome Tabs

Artists:  A B C D E F G H I J K L M N O P Q R S T U V W X Y Z # 

Stockholm Syndrome Tabs

(ver. 1) Click to play this song!
Yo La Tengo
 Rating:
4/5 (4 votes)
    Stockholm Syndrome lessons Tabs too difficult? Try these video lessons and learn fast
                
I don't have Guitar Pro, so I couldn't see the other one. It might be exactly the same, 
it might be totally different and much better.
I think all the notes are right, but on the original he's doing some tremolo-ing and 
maybe even some pitch bending.
Live he just loses it completely.
Go nuts!

E----12(h)~~-------------------------------------------------------------|
B------------------------------------------------------------------------|
G------------------------------------------------12~---11----------------|
D-------------------12~--12----------------12h14------------14---12h14---|
A----------12h14p12---------14p12--14~~----------------------------------|
E------------------------------------------------------------------------|

E--------------------15----------------------------------------------------------------|
B--------------------------------------------------------------------------------------|
G-------12h14^r--12------------12-12-14--12-12-12-14--14-14^r--12--12--14-14^r--12--12-|
D--/14-------------------14----12-12-12--12-12-12-12-----------------------------------|
A--------------------------------------------------------------------------------------|
E--------------------------------------------------------------------------------------|

E-------------------------------15~~---------------------17^---------------12^---------|
B------/15~--15--12------12------------------------------------------------------back--|
G--14----------------14-----12--------12--11--------------------------14---------to----|
D----------------------------------------------14--12---------14^hold----14------chorus|
A--------------------------------------------------------------------------------------|
E--------------------------------------------------------------------------------------|
            
Submit corrections

↑ Back to top | Tablatures and chords for acoustic guitar and electric guitar, ukulele, drums are parodies/interpretations of the original songs. You may use it for private study, scholarship, research or language learning purposes only