» » »

Yngwie Malmsteen - Cry No More Bass

Artists:  A B C D E F G H I J K L M N O P Q R S T U V W X Y Z # 

Cry No More Bass

(ver. 1) Click to play this song!
Yngwie Malmsteen
 Rating:
4/5 (4 votes)


 Cry No More lessons Tabs too difficult? Try these video lessons and learn fast
 
                
CRY NO MORE (Bassline)
As recorded by Yngwie Malmsteen
(From the 1992 Album FIRE & ICE)

	

Words by Yngwie Malmsteen & Goran Edman Music by Yngwie Malmsteen

Gtr I (Eb Ab Db Gb) - 'Bass - Svante Henryson'

 Intro
  Q=88
 4/4
  Gtr I
                           ~                   ~
  W            S S E E S S Q  Q    S S E E S S Q  S S S S  3x
|----------||--------------------|-------------------------||
|----------||o-------------------|----------------3-2-----o||
|----------||o-5-3-5---5-3-5-----|-5-3-5---5-3-5------5-3-o||
|----------||--------------------|-------------------------||


              ~                   ~
  S S E E S S Q  Q    S S E E S S Q  Q      q  q  q  q    q  q  Q  Q
|-------------------|-------------------||--------------|--------------||
|-------------------|-------------------||o-------------|-------------o||
|-5-3-5---5-3-5-----|-5-3-5---5-3-5-----||o-5--5--5--5--|-5--5--8--7--o||
|-------------------|-------------------||--------------|--------------||


    S S E E S S Q  Q    S S E E S S Q  S S S S
||--------------------|-------------------------||
||o-------------------|----------------3-2-----o||
||o-5-3-5---5-3-5-----|-5-3-5---5-3-5------5-3-o||
||--------------------|-------------------------||


   Verse
    $
                ~                   ~
    S S E E S S Q  Q    S S E E S S Q  S S S S  4x
||--------------------|-------------------------||
||o-------------------|----------------3-2-----o||
||o-5-3-5---5-3-5-----|-5-3-5---5-3-5------5-3-o||
||--------------------|-------------------------||


 Pre-Chorus
  Q.   +S  S +Q   Q    Q.   +S  S +Q   S S S S   H    H      H    Q  Q
|--------------------|-------------------------|-----------|------------||
|----------5-(5)--5--|----------5-(5)--5-5-5-5-|-----------|------------||
|--------------------|-------------------------|-----------|------------||
|-6----(6)-----------|-6----(6)----------------|-6----5----|-3----4--5--||


 Chorus
                                                   D.S.
  q  q  q  q    q  q  Q  Q    q  q  q  q    q  q  Q  Q
|-------------|-------------|-------------|-------------||
|-------------|-------------|-------------|-------------||
|-5--5--5--5--|-5--5--8--7--|-5--5--5--5--|-5--5--8--7--||
|-------------|-------------|-------------|-------------||


  q  q  q  q    q  q  Q  Q    q  q  q  q    q  q  Q  Q
|-------------|-------------|-------------|-------------||
|-------------|-------------|-------------|-------------||
|-5--5--5--5--|-5--5--8--7--|-5--5--5--5--|-5--5--8--7--||
|-------------|-------------|-------------|-------------||


   Interlude
    Q  Q  Q  Q    Q  Q  Q  Q    Q  Q  Q  Q    Q  Q  Q  Q
||--------------|-5-----------|-------------|---------------||
||o-------5--8--|----------7--|-8--------6--|-7------------o||
||o-5--9--------|----7--8-----|----5--7-----|----4--5--4---o||
||--------------|-------------|-------------|---------------||


   Guitar Solo
                ~                   ~
    S S E E S S Q  Q    S S E E S S Q  S S S S  4x
||--------------------|-------------------------||
||o-------------------|----------------3-2-----o||
||o-5-3-5---5-3-5-----|-5-3-5---5-3-5------5-3-o||
||--------------------|-------------------------||


    E E E E E E E E   E E E E E E E E     H    H      H    Q  Q
||------------------|------------------||-----------|-------------||
||o-----------------|-----------------o||-----------|-------------||
||o-1-1-1-1-1-1-1-1-|-3-3-3-3-3-3-3-3-o||------5----|-------------||
||------------------|------------------||-6---------|-3----4--5---||


   Chorus
    q  q  q  q    q  q  Q  Q    q  q  q  q    q  q  Q  Q    4x
||--------------|-------------|-------------|---------------||
||o-------------|-------------|-------------|--------------o||
||o-5--5--5--5--|-5--5--8--7--|-5--5--5--5--|-5--5--8--7---o||
||--------------|-------------|-------------|---------------||


   Outro Guitar Solo
                ~                   ~                          ~
    S S E E S S Q  Q    S S E E S S Q  S S S S  8x S S E E S S Q  Q
||--------------------|-------------------------||-------------------*|
||o-------------------|----------------3-2-----o||-------------------*|
||o-5-3-5---5-3-5-----|-5-3-5---5-3-5------5-3-o||-5-3-5---5-3-5-----*|
||--------------------|-------------------------||-------------------*|



Duration Legend
---------------
W - whole; H - half; Q - quarter; E - 8th; S - 16th; T - 32nd; X - 64th; a - acciaccatura
+ - note tied to previous; . - note dotted; .. - note double dotted
Uncapitalized letters represent notes that are staccato (1/2 duration)
Irregular groupings are notated above the duration line
Duration letters will always appear directly above the note/fret number it represents the
duration for.  Duration letters with no fret number below them represent rests.  Multi-
bar rests are notated in the form Wxn, where n is the number of bars to rest for.  Low
melody durations appear below the staff

Tablature Legend
----------------
 h   - hammer-on
 p   - pull-off
 b   - bend
 pb  - pre-bend
 r   - bend release (if no number after the r, then release immediately)
 /\  - slide into or out of (from/to "nowhere")
 s   - legato slide
 S   - shift slide
 - natural harmonic
[n]  - artificial harmonic
n(n) - tapped harmonic
 ~   - vibrato
 tr  - trill
 T   - tap
 TP  - trem. picking
 PM  - palm muting
\n/  - tremolo bar dip; n = amount to dip
 \n  - tremolo bar down
 n/  - tremolo bar up
/n\  - tremolo bar inverted dip
 =   - hold bend; also acts as connecting device for hammers/pulls
 <> - volume swell (louder/softer)
 x   - on rhythm slash represents muted slash
 o   - on rhythm slash represents single note slash

Misc Legend
-----------
 |  - bar
||  - double bar
||o - repeat start
o|| - repeat end
*|  - double bar (ending)
 :  - bar (freetime)
 $  - Segno
 &  - Coda
Tempo markers -  = BPM(8/16=s8/s16), where s8 = swing 8ths, s16 = swing 16ths
            
Submit corrections



        Cry No More lessons Hard to play? Try these video lessons and learn fast Cry No More lessons
        
↑ Back to top | Tablatures and chords for acoustic guitar and electric guitar, ukulele, drums are parodies/interpretations of the original songs. You may use it for private study, scholarship, research or language learning purposes only