» » »

Yes - Love Will Find A Way Bass

Artists:  A B C D E F G H I J K L M N O P Q R S T U V W X Y Z # 

Love Will Find A Way Bass

(ver. 1) Click to play this song!
Yes
 Rating:
4/5 (4 votes)


 Love Will Find A Way lessons Tabs too difficult? Try these video lessons and learn fast
 
                -----------------------------------------------------------------------------
                          LOVE WILL FIND A WAY - Yes
-----------------------------------------------------------------------------


Tuning: E A D G

INTRO
|--------|
|--------|
|--------|
|--------|

INTRO CHORUS                     sss
|--------|----------|--420-42|---222--|--------|----------|--420-42|---------|
|--------|5--------2|-4---4--|------42|--------|5--------2|-4---4--|-----7\40|
|0-45--45|--540-0/4-|2-------|--------|0-45--45|--540-0/4-|2-------|----0----|
|----3---|----------|--------|--------|----3---|----------|--------|---------|

                ss 
|--------|-----------|--420-42|--------|
|--------|5---------2|-4---4--|--------|
|0-45--45|--540-00/4-|2-------|--------|
|----3---|-----------|--------|--------|

VERSE 1          ss                                   ss                ss
|--------|---------|--------|--------|--------|---------|--------|--------|
|--------|---------|-------.|--------|--------|---------|-------.|------22|
|0-------|----00-00|2-0----0|--------|0-------|----00-00|2-0----0|--------|
|--2-3--3|-2-------|----3---|--------|--2-3--3|-2-------|----3~--|--------|

                                                               ss
|--------|--------|--------|--------|--------|---------|---------|--------|
|--------|--------|--------|--------|--------|---------|---------|----.---|
|0-------|----00-0|2-0----0|0---00--|0-------|----00--0|2-0----00|00--0---|
|--2-3--3|-2------|----3~--|---0----|--2-3--3|-2-------|----33---|--------|

PRECHORUS 1
|--------|--------|--------|---------|--------|---------|--------|--------|
|--------|--------|--------|---------|---00--0|2--22--2/|55555555|7777777-|
|--------|0--00--0|2--22--2|4--44--4/|5-------|---------|--------|-------0|
|3--33--3|--------|--------|---------|--------|---------|--------|--------|

CHORUS                           sss                  
|--------|----------|--420-42|---222---|--------|---------|--420-42|--------|
|-------5|---------2|-4---4--|------42-|-------5|--------2|-4---4--|--------|
|-45--45-|-540-00/4-|2-------|--------0|-45--45-|-540-0/4-|2-------|--------|
|---3----|----------|--------|---------|---3----|---------|--------|--------|

BRIDGE         ss               ss               ss
|------|---------|------|---------|------|---------|------|--------|--------|
|------|---------|------|---------|------|---------|------|--------|--------|
|2-2-2-|-00-00-00|2-2-2-|-00-00-00|2-2-2-|-00-00-00|2-2-2-|-00-00-0|0------0|
|------|---------|------|---------|------|---------|------|--------|--------|

CHORUS                           sss                  
|--------|----------|--420-42|---222---|--------|---------|--420-42|--------|
|-------5|---------2|-4---4--|------42-|-------5|--------2|-4---4--|--------|
|-45--45-|-540-00/4-|2-------|--------0|-45--45-|-540-0/4-|2-------|--------|
|---3----|----------|--------|---------|---3----|---------|--------|--------|

VERSE 2                            ss                 ss                
|--------|---------|--------|--------|2-------|---------|--------|---------|
|--------|---------|-------.|--------|--------|---------|-------.|---------|
|0-------|----00--0|2-0---00|------00|--------|----00-00|2-0----0|------0--|
|--2-3--3|-2-------|----3---|--------|--2-3--3|-2-------|----3---|-------5\|
                                  
|--------|-------|--------|---------|--------|--------|----------|--------|
|--------|-------|-------.|---------|--------|--------|----------|--------|
|0-------|---00-0|2-0----0|---00----|0-------|---00--0|2200------|00000002|
|--2-3--3|-2-----|----3~--|--0---2/3|--2-3--3|-2------|----33-3/5|--------|

PRECHORUS 2
|--------|--------|--------|---------|--------|--------|4--44--6|--14---|------|
|--------|--------|0--00--0|2--22--2/|5--55--5|7--77--7|--------|-------|------|
|2--22--2|4--44--4|--------|---------|--------|--------|--------|------0|-----0|
|--------|--------|--------|---------|--------|--------|--------|-------|------|

CHORUS 2                        sss                  ss
|--------|---------|--420-42|---222---|--------|----------|--420-42|--------|
|-------5|--------2|-4---4--|------42-|-------5|---------2|-4---4--|--------|
|-45--45-|-540-0/4-|2-------|--------0|-45--45-|-540-00/4-|2-------|--------|
|---3----|---------|--------|---------|---3----|----------|--------|--------|

SOLO
|----------|--------|--------|--------|---------|----------|--------|
|----------|--------|--------|--------|---------|----------|--------|
|----------|----00-0|2200---0|0---00-5|---------|------0000|2200----|
|5/10\3-33/|1010----|----33--|---3----|5/10\3333|3/1010----|----33-3|

|--------------|---------|----------|--------|--------|
|--------------|---------|----------|--------|--------|
|-----7979/1079|---------|/555\----0|2200----|00000000|
|55\0----------|5/10\33-3|-----5555-|----3333|--------|

OUTRO                            sss                  
|--------|----------|--420-42|---222---|--------|---------|--420-42|~/-119\--|
|-------5|---------2|-4---4--|------42-|-------5|--------2|-4---4--|---------|
|-45--45-|-540-00/4-|2-------|--------0|-45--45-|-540-0/4-|2-------|--------0|
|---3----|----------|--------|---------|---3----|---------|--------|---------|

                                                                      sss
|--------|---------|--420-42|---------|--------|---------|--420-42|---222---|
|-------5|--------2|-4---4--|---------|-------5|--------2|-4---4--|------4--|
|-45--45-|-540-0/4-|2-------|--------0|-45--45-|-540-0/4-|2-------|-------40|
|---3----|---------|--------|---------|---3----|---------|--------|---------|

|--------|----------|--420-49|~/1411119\-|--------|--------|----|----|----|
|-------5|---------2|-4---4--|-----------|-------5|--------|----|----|----|
|-45--45-|-540-00/4-|2-------|----------0|-45--45-|-540~~~~|~~~~|~~--|--0-|
|---3----|----------|--------|-----------|---3----|--------|----|----|----|
            
Submit corrections



        Love Will Find A Way lessons Hard to play? Try these video lessons and learn fast Love Will Find A Way lessons
        
↑ Back to top | Tablatures and chords for acoustic guitar and electric guitar, ukulele, drums are parodies/interpretations of the original songs. You may use it for private study, scholarship, research or language learning purposes only