» » »

Xavier Rudd - 12th Of September Tabs

Artists:  A B C D E F G H I J K L M N O P Q R S T U V W X Y Z # 

12th Of September Tabs

(ver. 1) Click to play this song!
Xavier Rudd
 Rating:
4.2/5 (5 votes)


 12th Of September lessons Tabs too difficult? Try these video lessons and learn fast
 
                PLEASE NOTE- I did'nt create this tab, i got these from archives i found from  "xrtab" 
has shut down. I only put these tabs on to make it easy for people to find these tabs now 
the site has shut down. -Peace


                              THE 12TH OF SEPTEMBER

                           As recorded by Xavier Rudd
                          (From the 2002 Album TO LET)

Words and Music by Xavier Rudd

Lapslide Tuning - CGCEGC


Intro:
|----------------|-----------------------|----------------------|
|----------------|-----------------------|----------------------|
|-------7------5-|---0-------------------|------------7------5--|
|---0---7-7----5-|-----<12>-x---3------5-|---0-<12>-x-7-7----5--|
|-----------7\---|-----------------------|----------------7\----|
|-0-----7--------|-5----------3---3-/5---|-0----------7---------|


|-----------------------|---------------------|-----------------------|
|-----------------------|---------------------|-----------------------|
|---0-------------------|------------7------5-|---0-------------------|
|-----<12>-x---3------5-|---0-<12>-x-7-7----5-|-----<12>-x---3------5-|
|-----------------------|----------------7\---|-----------------------|
|-5----------3---3-/5---|-0----------7--------|-5----------3---3-/5---|


                                           ~~~~~~~~~
|---------------------|-----------------------|------------|--------||
|---------------------|-----------------------|------------|--------||
|------------7------5-|---0-------------------|------------|--------||
|---0-<12>-x-7-7----5-|-----<12>-x---3---3s5--|-(5)--------|-(5)----||
|----------------7\---|-----------------------|------------|--------||
|-0----------7--------|-5----------3---3------|------------|--------||


Verse
|----------------|------------------|
|----------------|------------------|
|-------7------5-|---0--------------|
|---0---7-7----5-|-----<12>-x-3--5--|
|-----------7\---|------------------|
|-0-----7--------|-5----------------|


|---------------------|------------------------|
|---------------------|------------------------|
|------------7------5-|---0--------------------|
|---0-<12>-x-7-7----5-|-----<12>-x---3------5--|
|----------------7\---|------------------------|
|-0----------7--------|-5----------3---3-/5----|


|---------------------|------------------|
|---------------------|------------------|
|------------7------5-|---0--------------|
|---0-<12>-x-7-7----5-|-----<12>-x-3--5--|
|----------------7\---|------------------|
|-0----------7--------|-5----------------|


|---------------------|------------------------|
|---------------------|------------------------|
|------------7------5-|---0--------------------|
|---0-<12>-x-7-7----5-|-----<12>-x---3------5--|
|----------------7\---|------------------------|
|-0----------7--------|-5----------3---3-/5----|


|---------------------|------------------|
|---------------------|------------------|
|------------7------5-|---0--------------|
|---0-<12>-x-7-7----5-|-----<12>-x-3--5--|
|----------------7\---|------------------|
|-0----------7--------|-5----------------|


|---------------------|------------------------|
|---------------------|------------------------|
|------------7------5-|---0--------------------|
|---0-<12>-x-7-7----5-|-----<12>-x---3------5--|
|----------------7\---|------------------------|
|-0----------7--------|-5----------3---3-/5----|


|---------------------|------------------|
|---------------------|------------------|
|------------7------5-|---0--------------|
|---0-<12>-x-7-7----5-|-----<12>-x-3--5--|
|----------------7\---|------------------|
|-0----------7--------|-5----------------|


|---------------------|------------------------||
|---------------------|------------------------||
|------------7------5-|---0--------------------||
|---0-<12>-x-7-7----5-|-----<12>-x---3------5--||
|----------------7\---|------------------------||
|-0----------7--------|-5----------3---3-/5----||


Chorus
                      ~                                  ~
|----------------|-----------------|----------------|-----------------|
|----------------|-----------------|----------------|-----------------|
|--------------5s|=7---------------|--------------5s|=7---------------|
|----0----5----5s|=7--7----7---5---|----0----5----5s|=7--7----7---5---|
|----------------|----7------------|----------------|----7------------|
|-0-----5---5----|-------7---5---5-|-0-----5---5----|-------7---5---5-|

                      ~                                  ~
|----------------|-----------------|----------------|-----------------|
|----------------|-----------------|----------------|-----------------|
|--------------5s|=7---------------|--------------5s|=7---------------|
|----0----5----5s|=7--7----7---5---|----0----5----5s|=7--7----7---5---|
|----------------|----7------------|----------------|----7------------|
|-0-----5---5----|-------7---5---5-|-0-----5---5----|-------7---5---5-|


                      ~                                  ~
|----------------|-----------------|----------------|-----------------|
|----------------|-----------------|----------------|-----------------|
|--------------5s|=7---------------|--------------5s|=7---------------|
|----0----5----5s|=7--7----7---5---|----0----5----5s|=7--7----7---5---|
|----------------|----7------------|----------------|----7------------|
|-0-----5---5----|-------7---5---5-|-0-----5---5----|-------7---5---5-|


                      ~
|----------------|-----------------|----------------|---------------||
|----------------|-----------------|----------------|---------------||
|--------------5s|=7---------------|--------------5s|=7--7--7-------||
|----0----5----5s|=7--7----7---5---|----0----5----5s|=7--7--7----5--||
|----------------|----7------------|----------------|---------------||
|-0-----5---5----|-------7---5---5-|-0-----5---5----|----------5----||


Guitar Break
|--------------------|------------------------------|
|--------------------|------------------------------|
|------------15------|-/19--------------------------|
|---0-<12>-x-----15--|-----0-<12>-x----15--------17-|
|--------------------|------------------------------|
|-0------------------|--------------15----15-/17----|


                                            ~~~~
|--------------------|---------------------------|
|--------------------|---------------------------|
|------------15------|-/19-----------------------|
|---0-<12>-x-----15--|-----0-<12>-x-17s15-(15)---|
|--------------------|---------------------------|
|-0------------------|---------------------------|


|-------------------|---------------------------------|
|--------------------|--------------------------------|
|------------15------|-/19----------------------------|
|---0-<12>-x-----15--|-----0-<12>-x----15--------17---|
|--------------------|--------------------------------|
|-0------------------|--------------15----15-/17------|


                                            ~~~~
|--------------------|---------------------------||
|--------------------|---------------------------||
|------------15------|-/19-----------------------||
|---0-<12>-x-----15--|-----0-<12>-x-17s15-(15)---||
|--------------------|---------------------------||
|-0------------------|---------------------------||


Verse
|----------------|------------------|
|----------------|------------------|
|-------7------5-|---0--------------|
|---0---7-7----5-|-----<12>-x-3--5--|
|-----------7\---|------------------|
|-0-----7--------|-5----------------|


|---------------------|------------------------|
|---------------------|------------------------|
|------------7------5-|---0--------------------|
|---0-<12>-x-7-7----5-|-----<12>-x---3------5--|
|----------------7\---|------------------------|
|-0----------7--------|-5----------3---3-/5----|


|---------------------|------------------|
|---------------------|------------------|
|------------7------5-|---0--------------|
|---0-<12>-x-7-7----5-|-----<12>-x-3--5--|
|----------------7\---|------------------|
|-0----------7--------|-5----------------|


|---------------------|------------------------|
|---------------------|------------------------|
|------------7------5-|---0--------------------|
|---0-<12>-x-7-7----5-|-----<12>-x---3------5--|
|----------------7\---|------------------------|
|-0----------7--------|-5----------3---3-/5----|


|---------------------|------------------|
|---------------------|------------------|
|------------7------5-|---0--------------|
|---0-<12>-x-7-7----5-|-----<12>-x-3--5--|
|----------------7\---|------------------|
|-0----------7--------|-5----------------|


|---------------------|------------------------|
|---------------------|------------------------|
|------------7------5-|---0--------------------|
|---0-<12>-x-7-7----5-|-----<12>-x---3------5--|
|----------------7\---|------------------------|
|-0----------7--------|-5----------3---3-/5----|


|---------------------|------------------|
|---------------------|------------------|
|------------7------5-|---0--------------|
|---0-<12>-x-7-7----5-|-----<12>-x-3--5--|
|----------------7\---|------------------|
|-0----------7--------|-5----------------|


|---------------------|------------------------||
|---------------------|------------------------||
|------------7------5-|---0--------------------||
|---0-<12>-x-7-7----5-|-----<12>-x---3------5--||
|----------------7\---|------------------------||
|-0----------7--------|-5----------3---3-/5----||


Chorus
                      ~                                  ~
|----------------|-----------------|----------------|-----------------|
|----------------|-----------------|----------------|-----------------|
|--------------5s|=7---------------|--------------5s|=7---------------|
|----0----5----5s|=7--7----7---5---|----0----5----5s|=7--7----7---5---|
|----------------|----7------------|----------------|----7------------|
|-0-----5---5----|-------7---5---5-|-0-----5---5----|-------7---5---5-|


                      ~                                  ~
|----------------|-----------------|----------------|-----------------|
|----------------|-----------------|----------------|-----------------|
|--------------5s|=7---------------|--------------5s|=7---------------|
|----0----5----5s|=7--7----7---5---|----0----5----5s|=7--7----7---5---|
|----------------|----7------------|----------------|----7------------|
|-0-----5---5----|-------7---5---5-|-0-----5---5----|-------7---5---5-|


                      ~                                  ~
|----------------|-----------------|----------------|-----------------|
|----------------|-----------------|----------------|-----------------|
|--------------5s|=7---------------|--------------5s|=7---------------|
|----0----5----5s|=7--7----7---5---|----0----5----5s|=7--7----7---5---|
|----------------|----7------------|----------------|----7------------|
|-0-----5---5----|-------7---5---5-|-0-----5---5----|-------7---5---5-|


                      ~                                  ~
|----------------|-----------------|----------------|-----------------||
|----------------|-----------------|----------------|-----------------||
|--------------5s|=7---------------|--------------5s|=7---------------||
|----0----5----5s|=7--7----7---5---|----0----5----5s|=7--7----7---5---||
|----------------|----7------------|----------------|----7------------||
|-0-----5---5----|-------7---5---5-|-0-----5---5----|-------7---5---5-||


Didgeridoo Solo
|------------------|-----------------|----10s12---------|-----------------|
|----10s12---------|-----------------|----10s12---------|-----------------|
|----10s12-------5s|=7--7------------|----------------5s|=7--7------------|
|-------------0--5s|=7--7----7---5---|-------------0--5s|=7--7----7---5---|
|------------------|-----------------|------------------|-----------------|
|-0---------0------|-------7---5---5-|-0---------0------|-------7---5---5-|


|------------------|-----------------|----10s12---------|-----------------|
|----10s12---------|-----------------|----10s12---------|-----------------|
|----10s12-------5s|=7--7------------|----------------5s|=7--7------------|
|-------------0--5s|=7--7----7---5---|-------------0--5s|=7--7----7---5---|
|------------------|-----------------|------------------|-----------------|
|-0---------0------|-------7---5---5-|-0---------0------|-------7---5---5-|


|------------------|--------------|----------------|-----------------|
|----10s12----7----|----------7-7s|=10--9--5---5-5s|=7---------------|
|----10s12-------5s|=7--7---------|----------------|----7------------|
|----------------5s|=7--7---------|----------------|----7----7---5---|
|------------------|--------------|----------------|-----------------|
|-0---------0------|-------7------|----------0-----|-------7---5---5-|


|----10s12---------|-----------------|----10s12---------|-----------------|
|----10s12---------|-----------------|----10s12---------|-----------------|
|----------------5s|=7--7------------|----------------5s|=7--7------------|
|-------------0--5s|=7--7----7---5---|-------------0--5s|=7--7----7---5---|
|------------------|-----------------|------------------|-----------------|
|-0---------0------|-------7---5---5-|-0---------0------|-------7---5---5-|


|----10s12---------|-----------------|----10s12---------|-----------------|
|----10s12---------|-----------------|----10s12---------|-----------------|
|----------------5s|=7--7------------|----------------5s|=7--7------------|
|-------------0--5s|=7--7----7---5---|-------------0--5s|=7--7----7---5---|
|------------------|-----------------|------------------|-----------------|
|-0---------0------|-------7---5---5-|-0---------0------|-------7---5---5-|


                        ~                                    ~
|----10s12---------|----7------------|----10s12---------|----7------------|
|----10s12---------|----7------------|----10s12---------|----7------------|
|----------------5s|=7---------------|----------------5s|=7---------------|
|-------------0--5s|=7-------7---5---|-------------0--5s|=7-------7---5---|
|------------------|-----------------|------------------|-----------------|
|-0---------0------|-------7---5---5-|-0---------0------|-------7---5---5-|


                        ~                                    ~
|----10s12---------|----7------------|----10s12---------|-----------------||
|----10s12---------|----7------------|----10s12---------|-----------------||
|----------------5s|=7---------------|----------------5s|=7---------------||
|-------------0--5s|=7-------7---5---|-------------0--5s|=7--7----7---5---||
|------------------|-----------------|------------------|----7------------||
|-0---------0------|-------7---5---5-|-0---------0------|-------7---5---5-||


Chorus
                      ~                                  ~
|----------------|-----------------|----------------|-----------------|
|----------------|-----------------|----------------|-----------------|
|--------------5s|=7---------------|--------------5s|=7---------------|
|----0----5----5s|=7--7----7---5---|----0----5----5s|=7--7----7---5---|
|----------------|----7------------|----------------|----7------------|
|-0-----5---5----|-------7---5---5-|-0-----5---5----|-------7---5---5-|


                      ~                                  ~
|----------------|-----------------|----------------|-----------------|
|----------------|-----------------|----------------|-----------------|
|--------------5s|=7---------------|--------------5s|=7---------------|
|----0----5----5s|=7--7----7---5---|----0----5----5s|=7--7----7---5---|
|----------------|----7------------|----------------|----7------------|
|-0-----5---5----|-------7---5---5-|-0-----5---5----|-------7---5---5-|


                      ~                                  ~
|----------------|-----------------|----------------|-----------------|
|----------------|-----------------|----------------|-----------------|
|--------------5s|=7---------------|--------------5s|=7---------------|
|----0----5----5s|=7--7----7---5---|----0----5----5s|=7--7----7---5---|
|----------------|----7------------|----------------|----7------------|
|-0-----5---5----|-------7---5---5-|-0-----5---5----|-------7---5---5-|


                      ~
|----------------|-----------------|----------------|---------------||
|----------------|-----------------|----------------|---------------||
|--------------5s|=7---------------|--------------5s|=7--7--7-------||
|----0----5----5s|=7--7----7---5---|----0----5----5s|=7--7--7----5--||
|----------------|----7------------|----------------|---------------||
|-0-----5---5----|-------7---5---5-|-0-----5---5----|----------5----||


Guitar Break
|--------------------|------------------------------|
|--------------------|------------------------------|
|------------15------|-/19--------------------------|
|---0-<12>-x-----15--|-----0-<12>-x----15--------17-|
|--------------------|------------------------------|
|-0------------------|--------------15----15-/17----|


                                            ~~~~
|--------------------|---------------------------|
|--------------------|---------------------------|
|------------15------|-/19-----------------------|
|---0-<12>-x-----15--|-----0-<12>-x-17s15-(15)---|
|--------------------|---------------------------|
|-0------------------|---------------------------|


|--------------------|------------------------------|
|--------------------|------------------------------|
|------------15------|-/19--------------------------|
|---0-<12>-x-----15--|-----0-<12>-x----15--------17-|
|--------------------|------------------------------|
|-0------------------|--------------15----15-/17----|


                                            ~~~~
|--------------------|---------------------------||
|--------------------|---------------------------||
|------------15------|-/19-----------------------||
|---0-<12>-x-----15--|-----0-<12>-x-17s15-(15)---||
|--------------------|---------------------------||
|-0------------------|---------------------------||


Outro
|----------------|-----------------------|
|----------------|-----------------------|
|-------7------5-|---0-------------------|
|---0---7-7----5-|-----<12>-x---3------5-|
|-----------7\---|-----------------------|
|-0-----7--------|-5----------3---3-/5---|


|---------------------|-----------------------|
|---------------------|-----------------------|
|------------7------5-|---0-------------------|
|---0-<12>-x-7-7----5-|-----<12>-x---3------5-|
|----------------7\---|-----------------------|
|-0----------7--------|-5----------3---3-/5---|


|---------------------|-----------------------|
|---------------------|-----------------------|
|------------7------5-|---0-------------------|
|---0-<12>-x-7-7----5-|-----<12>-x---3------5-|
|----------------7\---|-----------------------|
|-0----------7--------|-5----------3---3-/5---|


|---------------------|-----------------------|
|---------------------|-----------------------|
|------------7------5-|---0-------------------|
|---0-<12>-x-7-7----5-|-----<12>-x---3------5-|
|----------------7\---|-----------------------|
|-0----------7--------|-5----------3---3-/5---|


|----------|--------*|
|----------|--------*|
|----------|--------*|
|----------|--------*|
|----------|--------*|
|-0--------|-(0)----*|


Tablature Legend
----------------
h   - hammer-on
p   - pull-off
b   - bend
pb  - pre-bend
r   - bend release (if no number after the r, then release immediately)
/\  - slide into or out of (from/to "nowhere")
s   - legato slide
S   - shift slide
  - natural harmonic
[n]  - artificial harmonic
n(n) - tapped harmonic
~   - vibrato
tr  - trill
T   - tap
TP  - trem. picking
PM  - palm muting
\n/  - tremolo bar dip; n = amount to dip
\n  - tremolo bar down
n/  - tremolo bar up
/n\  - tremolo bar inverted dip
=   - hold bend; also acts as connecting device for hammers/pulls
<>  - volume swell (louder/softer)
x   - on rhythm slash represents muted slash
o   - on rhythm slash represents single note slash

Misc Legend
-----------
|  - bar
||  - double bar
||o - repeat start
o|| - repeat end
*|  - double bar (ending)
:  - bar (freetime)
$  - Segno
&  - Coda
Tempo markers -  = BPM(8/16=s8/s16), where s8 = swing 8ths, s16 = swing 16ths
            
Submit corrections



        12th Of September lessons Hard to play? Try these video lessons and learn fast 12th Of September lessons
        
↑ Back to top | Tablatures and chords for acoustic guitar and electric guitar, ukulele, drums are parodies/interpretations of the original songs. You may use it for private study, scholarship, research or language learning purposes only