» » »

Woe Is Me - Fame Demise Tabs

Artists:  A B C D E F G H I J K L M N O P Q R S T U V W X Y Z # 

Fame Demise Tabs

(ver. 2) Click to play this song!
Woe Is Me
 Rating:
4.6/5 (9 votes)


 Fame Demise lessons Tabs too difficult? Try these video lessons and learn fast
 
                This is my first tab... so go easy on me.


Your true colors are starting to get loud....
e|-----------------------------------------------------------------------|
B|-----------------------------------------------------------------------|
G|-----------------------------------------------------------------------|
D|--5~--8~--7~------7--7--7\5---8--7~------------------------------------|
A|--1~--5~--3~------3--3--3\1---5--3~------------------------------------|
D|--1~--5~--3~------3--3--3\1---5--3~------------------------------------|

Strum pattern is pretty easy to catch on to..

All that you taught me to be....
e|-----------------------------------------------------------------------|
B|-----------------------------------------------------------------------|
G|-----------------------------------------------------------------------|
D|---8---7---5---7-------------------------------------------------------|
A|---5---3---1---3-------------------------------------------------------|
D|---5---3---1---3-------------------------------------------------------|



How could you shelter me out...
e|-----------------------------------------------------------------------|
B|-----------------------------------------------------------------------|
G|-----------------------------------------------------------------------|
D|---8---7---5---7---2---1~----------------------------------------------|
A|---5---3---1---3---3---1~----------------------------------------------|
D|---5---3---1---3---2---1~----------------------------------------------|

I'll build my way out of your demise...
e|-----------------------------------------------------------------------|
B|-----------------------------------------------------------------------|
G|-----------------------------------------------------------------------|
D|---8---12----7---------------------------------------------------------|x2
A|---5---8-----3---------------------------------------------------------|
D|---5---8-----3---------------------------------------------------------|

e|-----------------------------------------------------------------------|
B|-----------------------------------------------------------------------|
G|-----------------------------------------------------------------------|
D|---8---12----7---3--3--------------------------------------------------|
A|---5---8-----3---3--3--------------------------------------------------|
D|---5---8-----3---3--3--------------------------------------------------|

Your true colors are starting to get loud....
e|-----------------------------------------------------------------------|
B|-----------------------------------------------------------------------|
G|-----------------------------------------------------------------------|
D|---5---8---7-----------------------------------------------------------| 
A|---1---5---3-----------------------------------------------------------|
D|---1---5---3-----------------------------------------------------------|

e|-----------------------------------------------------------------------|
B|-----------------------------------------------------------------------|
G|-----------------------------------------------------------------------|
D|---5---8---7---2-------------------------------------------------------| 
A|---1---5---3---3-------------------------------------------------------|
D|---1---5---3---2-------------------------------------------------------|

This war...
e|-----------------------------------------------------------------------|
B|-----------------------------------------------------------------------|
G|-----------------------------------------------------------------------|
D|---8---5---7-----------------------------------------------------------|x4 
A|---5---1---3-----------------------------------------------------------|
D|---5---1---3-----------------------------------------------------------|


Your true colors are starting to get loud....
e|-----------------------------------------------------------------------|
B|-----------------------------------------------------------------------|
G|-----------------------------------------------------------------------|
D|--5~--8~--7~------7--7--7\5---8--7--5~---------------------------------|
A|--1~--5~--3~------3--3--3\1---5--3--1~---------------------------------|
D|--1~--5~--3~------3--3--3\1---5--3--1~---------------------------------|
            
Submit corrections



        Fame Demise lessons Hard to play? Try these video lessons and learn fast Fame Demise lessons
        
↑ Back to top | Tablatures and chords for acoustic guitar and electric guitar, ukulele, drums are parodies/interpretations of the original songs. You may use it for private study, scholarship, research or language learning purposes only