» » »

Wings - With A Little Luck Bass

Artists:  A B C D E F G H I J K L M N O P Q R S T U V W X Y Z # 

With A Little Luck Bass

(ver. 1) Click to play this song!
Wings
 Rating:
4/5 (4 votes)

 With A Little Luck lessons Tabs too difficult? Try these video lessons and learn fast
 
                -----------------------------------------------------------------------------
                         WITH A LITTLE LUCK - Wings
-----------------------------------------------------------------------------


Tuning: E A D G

INTRO ssss 
|----------|--------|--------|----------|
|----------|--------|3:------|----------|
|2-2--2-2--|--------|4:2-2---|5-4--2----|
|------2---|0---0--0|--------|-------0--|

VERSE 1  0:16
|------------|-2------4-----|--------------|-2------4---|----------|
|-2----2-----|--------------|-2------2-----|------------|---------2|
|----------0-|0--0x2-2--20--|----x-------0-|0-00x2-2-x2\|4-4--4-4--|
|0--4-4--4---|------------0-|0--0-4-4--40--|------------|----------|

CHORUS 1  s s
|------------|----------|-------6--|x6-6-x6x6-6-|x6x----------|
|4--------2h4|--4-------|4---------|------------|---4---4-----|
|-----4-4----|----x4-4--|-----4----|------------|--------x4-4-|
|--2---------|2---------|--2-------|------------|-----2-------|

||--------7-------|--4---------|-------||
||6:--0-7---7---7-|----4-4---4/|9------||
||4:40--------5---|2-------2---|-------||
||----------------|------------|-----7\||

VERSE 2  1:11
|--------------|---2------4----|---------------|---2-2/44-4--4/6-|----------|
|--2--2----2--2|---------------|---2-------2---|-----------------|----------|
|---x----------|0-0-00x222--x2-|---------------|0-0------2--2----|4-4--4-4--|
|0---0-04-4--4-|---------------|0-0--0-4444--4-|-----------------|----------|

CHORUS 2  1:32
|-------6--|-----------|-----------|6-6-x6x6-6-6-|
|--4-------|--4-4------|--4-4------|------------x|
|-----4----|-----x4-4--|------4-4--|-------------|
|2---------|2----------|2----------|-------------|

                        ssssss    
|-----------|--------7-76/74---|--4-4---------|
|4-4--------|----5/7--------74\|--------------|
|-----x4-4--|5-5---------------|2----2-x2-2-2-|
|-----------|------------------|--------------|

VERSE 3  2:02
|--------------|---2-----4-4---|---------------|--2-2-----4-4-4--|-------------|
|--22------2---|---------------|---2-------2---|-----------------|-------------|
|--------------|0-0-00x22-2-x2\|---------------|0--0--0-22-2---2\|4-4--x4-4-x4/|
|0----0-4-4--40|---------------|0-0--0-44-4--4-|-----------------|-------------|


|--------------|--2-2-----------|--------------|--2-2-----------|
|---2------2---|----------9-9--9|---2------2---|------7/99-9----|
|------0-------|0--0-0-------x--|------0-------|0--0------------|
|0-0--0-4-4--40|------5/77-7--7-|0-0--0-4-4--40|----------7-7-79|

|---------------|-----------4--44h64|----9----------|------------------|
|--2-2-2----2---|---777\64----------|-----------2---|--6/77x7/9--9-9---|
|---------------|0-0------22-2------|--7--70--------|0-----------------|
|0--0-0-04-4--40|-------------------|0------44-4-x40|----------77-7-x7\|

|---------------|---2-2/4-----|-----------|---------------|
|--2-2-2----2---|-------------|-----------|5:-------------|
|---------------|0-0-0---22-2-|-----------|4:-------------|
|0--0-0-x4-4--40|-------------|--7\0------|----00-0/7-7---|

INTERLUDE  3:16
|----------|--------------|------------||--7-76---|---------||
|-------2-/|---------2----|---------2/7||5:-------|---------||
|5-4--2----|5-54--2-2-----|5-54--2-2---||4:-------|2-2--2---||
|----------|-----------000|------------||---------|-------0-||

|--|--|-9--|9--x9|----|--------------|----------|---2-------4------9-|
|--|--|----|-----|----|-------22-2-2\|--2---2---|-------------99h11--|
|--|--|----|-----|---2|----2h4-------|----------|0-0--0012-2---------|
|--|--|----|-----|----|--------------|0--4-4--40|--------------------|

|--------------|----2----4--4-|-----------|-----------|------6-6--|
|---2------2---|--------------|---------24|4-4--------|x4-4-------|
|--------------|0-0--x2-x--x--|4-4--4-4---|-----x4-4--|-----------|
|0-0-x0-4-4--40|--------------|-----------|-----------|-----------|

|x6-6--6-6-66-6-|6-66-6-6-66-6-|-------------|----------|----------------|
|-----6-6----6-6|----6-6----6-6|4-44-4-------|0-0--0-0--|-----9-98--9-98-|
|---------------|--------------|------x4-4-40|----0-----|2-2/9-9-----9---|
|---------------|--------------|-------------|------0---|----------7-----|

VERSE 4  4:56
|-------------|--2--2----4--4/6-|---------------|---2--2-24-2-x4-|
|2--2-----2---|-----------------|2--2------2----|----------------|
|-------------|0--0--x2-2--2----|------0--------|0-0--0---------2|
|-00--0-4---40|-----------------|--0--0-4-4--x40|----------------|

|--------------|---2---------------|---------------|----------|
|-22--22---2---|-------------------|--2--2----2----|2:--------|
|--------------|0-0---000----------|---------------|4:0--0-0--|
|0--0---4-4--40|-----4---5/777-7x77|0---0-04-4--x40|----------|

OUTRO  5:28
|----------7-6-----|--------|--------|
|-------2-/-----5/-|--------|--------|
|5-4--2------------|2-2-----|--------|
|------------------|------7\|0-------|
            
Submit corrections


        With A Little Luck lessons Hard to play? Try these video lessons and learn fast With A Little Luck lessons
        
↑ Back to top | Tablatures and chords for acoustic guitar and electric guitar, ukulele, drums are parodies/interpretations of the original songs. You may use it for private study, scholarship, research or language learning purposes only