» » »

Wings - Silly Love Songs Tabs

Artists:  A B C D E F G H I J K L M N O P Q R S T U V W X Y Z # 

Silly Love Songs Tabs

(ver. 1) Click to play this song!
Wings
 Rating:
4/5 (4 votes)

 Silly Love Songs lessons Tabs too difficult? Try these video lessons and learn fast
 
                this is a new version from the 1984 album 
"Give My Regards To Broad Street" in which he adds
more chords and solo to this song...I'll start from
"..it isn't silly" since is when the changes occur...
the rest of the chords you can get it from the other 
tabs, which I think are correct..


Dm7
 It isn't silly,     no, it isn't silly 
                        
Love isn't silly at all 

   Eb   Gm   Ab
e|-------------------------------------------------|
B|-------------------------------------------------|
G|------------------16-------16----16--------------|
D|--------------15^------15^----13----12~\---------|
A|-------------------------------------------------|
E|-------------------------------------------------|

   Eb   Gm  Ab
e|-----------------------------------------------------|
B|--------------------------------11-------------------|
G|-------------------7-8-10---10^----10vp8-7-10-8~\----|
D|-------------/8-10--------8--------------------------|
A|-----------------------------------------------------|
E|-----------------------------------------------------|

   Eb Gm    Ab
e|-----------------15^-15^-15^v--13-11----13------------|
B|-------------------------------------11----11-11~\----|
G|------------------------------------------------------|
D|------------------------------------------------------|
A|------------------------------------------------------|
E|------------------------------------------------------|

       Eb                           Gm                 Ab  
e|--------------11-13-13-13-11/13-13/15-15/16-16/18-18-18^~-------|
B|----------------------------------------------------------------|
G|----------------------------------------------------------------|
D|----------------------------------------------------------------|
A|----------------------------------------------------------------|
E|----------------------------------------------------------------|

                    C              Em7         Fmaj7
e|--18^v-16-------------20--19^-19-17-19-15~\-------------|
B|----------20^v--18^-------------------------------------|
G|--------------------------------------------------------|
D|--------------------------------------------------------|
A|--------------------------------------------------------|
E|--------------------------------------------------------|
                    I             love         you....



BASS SOLO: 
G|-----------------------------------------------------|
D|-----------------------------------------------------|
A|-----------------3-33--------------------------------|
E|-3-3-3-3-3-3----------5-5-3-333/5-0-0-0--------------|

G|--------------------------------------------------------|
D|--------------------------------------------------------|
A|-------------------------3--------3--------3--5p3-------|
E|-1-2-3-333-2-1--1-3-4-3h5--xx-3h5---xx-3h5--------5-----|


G|-------------------------------------|
D|-------------------------------------|
A|-3-33--------------------------------|
E|------5-5-3-333/5-0-0-0--------------|

G|--------------------------------------------------------|
D|--------------------------------------------------------|
A|-------------------------3--------3--------3--5p3-------|
E|-1-2-3-333-2-1--1-3-4-3h5--xx-3h5---xx-3h5--------5-----|

1st guitar:
e|----------------------------10----12^-12-----------------|
B|-------------------------13----13--------13~\------------|
G|---------------10-12-12^---------------------------------|
D|---------10-12-------------------------------------------|
A|--/8--12-------------------------------------------------|
E|---------------------------------------------------------|

And the rest is basically the same.......
            
Submit corrections


        Silly Love Songs lessons Hard to play? Try these video lessons and learn fast Silly Love Songs lessons
        
↑ Back to top | Tablatures and chords for acoustic guitar and electric guitar, ukulele, drums are parodies/interpretations of the original songs. You may use it for private study, scholarship, research or language learning purposes only