» » »

Willie Nelson - Blue Eyes Cryin In The Rain Tabs

Artists:  A B C D E F G H I J K L M N O P Q R S T U V W X Y Z # 

Blue Eyes Cryin In The Rain Tabs

(ver. 1) Click to play this song!
Willie Nelson
 Rating:
4.3/5 (24 votes)
    Blue Eyes Cryin In The Rain  lessons Tabs too difficult? Try these video lessons and learn fast
                [Solo]

E|-----------------------------------|-----------------------------------------------------------------------|
B|---7-9-9-9-10b--7-9-9-9-10b-9-7h9p7|--------9-9-9-7-7-9--7----10-12-9-------------------7-9-9-9--10b-------|
G|--9------------9-------------------|-9-----------------------------------------9----7------------------9---|
D|-9------------9--------------------|---9/6-9-9-9-9---------9------------9/6--9---9----9--------------9-----|
A|-----------------------------------|-----------------------------------------------------------------------|
E|-----------------------------------|-----------------------------------------------------------------------|

E|---------------------------------------------|-------------------------------------------------------------|
B|---7-------------------9---9----7--7--9--7---|------7------------------------------------------------------|
G|-----9---------------------------------------|-6/8-------------9-----------8-----------6----------5--------|
D|-------9-7-6---9/6---9---9---9-------------9-|--------9------9-----------7----------7----------6-----------|
A|---------------------------------------------|-------------------------------------------------------------|
E|---------------------------------------------|------------7------7-8---8------8-8-7------7-6-6------6-6-5b-|            
Submit corrections

↑ Back to top | Tablatures and chords for acoustic guitar and electric guitar, ukulele, drums are parodies/interpretations of the original songs. You may use it for private study, scholarship, research or language learning purposes only