» » »

Wilco - Sky Blue Sky Chords

Artists:  A B C D E F G H I J K L M N O P Q R S T U V W X Y Z # 

Sky Blue Sky Chords

(ver. 3) Click to play this song!
Wilco
 Rating:
2.2/5 (29 votes)

 Sky Blue Sky lessons Tabs too difficult? Try these video lessons and learn fast
 
                intro
e|--------------------------------------------0-0-0-0-3-3-3-3-3-3-3-3--|
B|------------------------------------1-1-1-1-1-1-1-1-3-3-3-3-3-3-3-3--|
G|--------------------0-0-0-0-0-0-0-0-2-2-2-2-0-0-0-0-0-0-0-0-0-0-0-0--|
D|--0---0-0-0-0-0-----4-4-4-4-2-2-2-2-2-2-2-2-2-2-2-2-0-0-0-0-0-0-0-0--|
A|--0h2-2-2-2-2-2-0-2-2-2-2-2-2-2-2-2-0-0-0-0-3-3-3-3-2-2-2-2-2-2-2-2--|
E|--3---3-3-3-3-3-----0-0-0-0-0-0-0-0---------3-3-3-3-3-3-3-3-3-3-3-3--|

G                              Emadd2   Em
Oh, the band marched on in formation
Am              Am7/G   D/F#
The brass was phasing tunes I couldn't place
Cmaj7/G           Bm     Em
Windows open and raining in
Am                C/G            G
Maroon, yellow, blue, gold and gray

G                     Emadd2   Em
The drunks were ricocheting
Am                 Am7/G   D/F#
The old buildings downtown empty so long ago
Cmaj7/G              Bm   Em
Windows broken and dreaming
Am           C/G               G
So happy to leave what was my home

D7                        D#dim7/A
With a sky blue sky this rotten time
          Em                Am
Wouldn't seem so bad to me now
D7                             D#dim7/A
Oh, I didn't die, I should be satisfied
      Em                            Am
I survived, that's good enough for now

solo
e|-----------------------------------------------------------------|
B|------------------------------------------1-------------1--------|
G|--------------------0-0-0-0-0-0-0-0---4-----4---4---4-----4---4--|
D|--0---0-0-0-0-0-----4-4-4-4-2-2-2-2-2---2-----2-------2-----2----|
A|--0h2-2-2-2-2-2-0-2-2-2-2-2-2-2-2-2-0----------------------------|
E|--3---3-3-3-3-3-----0-0-0-0-0-0-0-0---------------3--------------|

e|--------------------------------------------------|
B|----3-0-------------------------------------------|
G|----2---2-0-------4---2---4---2---4---------------|
D|----0-------2/4-5---5---5---5---5---5-4~-4h5p4-2--|
A|----0---------------------------------------------|
E|--2-----------------------------------------------|

e|---------------------------------------------|
B|---------------------------------------------|
G|------------------------------------------0--|
D|--------------------------------------0h2----|
A|----0-0h2-0-----0-0h2-0---0h2p0---0h2--------|
E|--3---------3-3---------3-------3------------|

D7                        D#dim7/A
With a sky blue sky this rotten time
          Em                Am
Wouldn't seem so bad to me now
D7                             D#dim7/A
Oh, I didn't die, I should be satisfied
      Em                            Am
I survived, that's good enough for now

outro
e|--------------------------------------------------------------3--|
B|------------------------------------------1-------1-1-1---1---3--|
G|--------------------0-0-0-0-0-0-0-0---4-----4---4-0-0-0---0---0--|
D|--0---0-0-0-0-0-----4-4-4-4-2-2-2-2-2---2-----2---2-2-0h2-0h2-0--|
A|--0h2-2-2-2-2-2-0-2-2-2-2-2-2-2-2-2-0-------------3-3-3---3---2--|
E|--3---3-3-3-3-3-----0-0-0-0-0-0-0-0---------------3-3---------3--|
            
Submit corrections


        Sky Blue Sky lessons Hard to play? Try these video lessons and learn fast Sky Blue Sky lessons
        
↑ Back to top | Tablatures and chords for acoustic guitar and electric guitar, ukulele, drums are parodies/interpretations of the original songs. You may use it for private study, scholarship, research or language learning purposes only