Home » W » White Town »

White Town - Your Woman Bass

Artists:  A B C D E F G H I J K L M N O P Q R S T U V W X Y Z # 

Your Woman Bass

(ver. 3) Click to play this song!
White Town
white town
your woman
standard tuning EADG

VERSE
|*----------------------------------------*|
|*--5--5----5-------------------3--3----3-*|
|*-----------6--6----6-3--3----3----------*|
|*----------------------------------------*|

chorus 2x
|--------------------------------------3--|
|--4--4----4-3--3----3-1--1----1-3-1-3----|
|-----------------------------------------|
|-----------------------------------------|

bridge 4x ---after the break bass comes in
|--------------------------------------3--|
|--4--4----4-3--3----3-1--1----1-3-1-3----|
|-----------------------------------------|
|-----------------------------------------|

j3
            
Submit corrections

↑ Back to top | Tablatures and chords for acoustic guitar and electric guitar, ukulele, drums are parodies/interpretations of the original songs. You may use it for private study, scholarship, research or language learning purposes only