» » »

We The Kings - Say You Like Me Bass

Artists:  A B C D E F G H I J K L M N O P Q R S T U V W X Y Z # 

Say You Like Me Bass

(ver. 1) Click to play this song!
We The Kings
 Rating:
4/5 (4 votes)


 Say You Like Me lessons Tabs too difficult? Try these video lessons and learn fast
 
                This song is in standard tuning, but they play this song a whole step down live.

Check out my bass cover of this song!


Check out my channel for more covers!


Verse 1

Bass doesn't come in until about 0:23

G|----------------------------------------------------------------------|
D|-----7-------9-------7-------7-------7-------9-------7-------7--------|
A|-5-------7-------0-------0-------5-------7-------0-------0------------|
E|----------------------------------------------------------------------|

G|----------------------------------------------------------------------|
D|-----7-------9--------------------------------------------------------|
A|-5-------7-------8---8---9---7---5---5---7---7------------------------|
E|-------------------------------------------------5---5---5---5--------|

Chorus 1

G|----------------------------------------------------------------------|
D|----------------------------------------------------------------------| x3
A|-5--55--5-55-5--------------------------------------------------------|
E|----------------5--55--5-55-5--2--22--2-22-2--0--00--0-00-0-----------| 

Verse 2

Same as verse 1

Chorus 2

Same as chorus 2

Bridge

G|----------------------------------------------------------------------|
D|----------------------------------------------------------------------|
A|---------------------------------5-5-5-5-5-5-5-5----------------------|
E|-2-2-2-2-2-2-2-2-0-0-0-0-0-0-0-0-----------------5-5-5-5-4---4--------|

G|----------------------------------------------------------------------|
D|----------------------------------------------------------------------|
A|---------------------------------5-5-5-5-5-5-5-5-7-7-7-7-7-7-7-7-5----|
E|-2-2-2-2-2-2-2-2-0-0-0-0-0-0-0-0--------------------------------------|

Chorus 3

G|----------------------------------------------------------------------|
D|----------------------------------------------------------------------| x2
A|-5--55--5-55-5--------------------------------------------------------|
E|----------------5--55--5-55-5--2--22--2-22-2--0--00--0-00-0-----------|

G|----------------------------------------------------------------------|
D|----------------------------------------------------------------------|
A|-5--55--5-55-5--------------------------------------------------------|
E|----------------5--55--5-55-5--2--22--2-22-2--0--00--00-00-00--5------|
            
Submit corrections



        Say You Like Me lessons Hard to play? Try these video lessons and learn fast Say You Like Me lessons
        
↑ Back to top | Tablatures and chords for acoustic guitar and electric guitar, ukulele, drums are parodies/interpretations of the original songs. You may use it for private study, scholarship, research or language learning purposes only