» » »

Weird Al Yankovic - White And Nerdy Bass

Artists:  A B C D E F G H I J K L M N O P Q R S T U V W X Y Z # 

White And Nerdy Bass

(ver. 1) Click to play this song!
Weird Al Yankovic
 Rating:
4/5 (4 votes)


 White And Nerdy lessons Tabs too difficult? Try these video lessons and learn fast
 
                Tuning: Standard

There IS bass in this song, the only difference is that it's played with a
synth bass.

|---------------------------------|
|-------1x----2x----1x------------|
|-------------------------6-5-----|
|-4x--------------------------7-6-|
I think the keyboard plays^ ^ ^ ^
this.

You could also play it like this, there's octaves that the keyboard plays
so I guess the bass could play it too.
|--------------------------------------|
|-------1--/11--2--/12--1--/11-1-0-----|
|----------------------------------2-1-|
|-4x-----------------------------------|
            
Submit corrections



        White And Nerdy lessons Hard to play? Try these video lessons and learn fast White And Nerdy lessons
        
↑ Back to top | Tablatures and chords for acoustic guitar and electric guitar, ukulele, drums are parodies/interpretations of the original songs. You may use it for private study, scholarship, research or language learning purposes only