» » »

Wednesday 13 - Ghost Of Vincent Price Bass

Artists:  A B C D E F G H I J K L M N O P Q R S T U V W X Y Z # 

Ghost Of Vincent Price Bass

(ver. 1) Click to play this song!
Wednesday 13
 Rating:
4/5 (4 votes)


 Ghost Of Vincent Price lessons Tabs too difficult? Try these video lessons and learn fast
 
                
THE GHOST OF VICENT PRICE (Bassline)
As recorded by Wednesday 13
(From the 2005 Album TRANSYLVANIA 90210 - SONGS OF DEATH, DYING AND THE DEAD)

	

Words and Music by Wednesday 13

Gtr I (C G C F) - 'Picked Bass'

  Q=92
 4/4
  Gtr I
  Wx4          W          H    H      W          H    H
|------------|----------|-----------|----------|-----------|
|------------|----------|-----------|----------|-----------|
|------------|-5--------|-----------|-5--------|-----------|
|------------|----------|-8----5----|----------|-8----5----|


  S S S S S S S S S S S S S S S S   S S S S S S S S S S S S S S S S
|---------------------------------|---------------------------------|
|---------------------------------|---------------------------------|
|-5-5-5-5-5-5-5-5-5-5-5-5-5-5-5-5-|---------------------------------|
|---------------------------------|-8-8-8-8-8-8-8-8-5-5-5-5-5-5-5-5-|


  S S S S S S S S S S S S S S S S   S S S S S S S S S S S S S S S S
|---------------------------------|---------------------------------|
|---------------------------------|---------------------------------|
|-5-5-5-5-5-5-5-5-5-5-5-5-5-5-5-5-|---------------------------------|
|---------------------------------|-8-8-8-8-8-8-8-8-5-5-5-5-5-5-5-5-|


  S S S S S S S S S S S S S S S S   S S S S S S S S S S S S S S S S
|---------------------------------|---------------------------------|
|---------------------------------|---------------------------------|
|-5-5-5-5-5-5-5-5-5-5-5-5-5-5-5-5-|---------------------------------|
|---------------------------------|-8-8-8-8-8-8-8-8-5-5-5-5-5-5-5-5-|


  S S S S S S S S S S S S S S S S   S S S S S S S S S S S S S S S S
|---------------------------------|---------------------------------|
|---------------------------------|---------------------------------|
|-5-5-5-5-5-5-5-5-5-5-5-5-5-5-5-5-|---------------------------------|
|---------------------------------|-8-8-8-8-8-8-8-8-5-5-5-5-5-5-5-5-|


  S S S S S S S S S S S S S S S S   S S S S S S S S S S S S S S S S
|---------------------------------|---------------------------------|
|---------------------------------|---------------------------------|
|-5-5-5-5-5-5-5-5-5-5-5-5-5-5-5-5-|---------------------------------|
|---------------------------------|-8-8-8-8-8-8-8-8-5-5-5-5-5-5-5-5-|


  S S S S S S S S S S S S S S S S   S S S S S S S S S S S S S S S S
|---------------------------------|---------------------------------|
|---------------------------------|---------------------------------|
|-5-5-5-5-5-5-5-5-5-5-5-5-5-5-5-5-|---------------------------------|
|---------------------------------|-8-8-8-8-8-8-8-8-5-5-5-5-5-5-5-5-|


  S S S S S S S S S S S S S S S S   S S S S S S S S S S S S S S S S
|---------------------------------|---------------------------------|
|---------------------------------|---------------------------------|
|-5-5-5-5-5-5-5-5-5-5-5-5-5-5-5-5-|---------------------------------|
|---------------------------------|-8-8-8-8-8-8-8-8-5-5-5-5-5-5-5-5-|


  S S S S S S S S S S S S S S S S   S S S S S S S S S S S S S S S S
|---------------------------------|---------------------------------|
|---------------------------------|---------------------------------|
|-5-5-5-5-5-5-5-5-5-5-5-5-5-5-5-5-|---------------------------------|
|---------------------------------|-8-8-8-8-8-8-8-8-5-5-5-5-5-5-5-5-|


  S S S S S S S S S S S S S S S S   S S S S S S S S S S S S S S S S
|---------------------------------|---------------------------------|
|---------------------------------|---------------------------------|
|---------------------------------|---------------------------------|
|-3-3-3-3-3-3-3-3-3-3-3-3-3-3-5-5-|-7-7-7-7-7-7-7-7-7-7-7-7-7-7-5-5-|


  S S S S S S S S S S S S S S S S   S S S S S S S S S S S S S S S S
|---------------------------------|---------------------------------|
|---------------------------------|---------------------------------|
|---------------------------------|---------------------------------|
|-3-3-3-3-3-3-3-3-3-3-3-3-3-3-5-5-|-7-7-7-7-7-7-7-7-7-7-7-7-7-7-5-5-|


  S S S S S S S S S S S S S S S S   S S S S S S S S S S S S S S S S
|---------------------------------|---------------------------------|
|---------------------------------|---------------------------------|
|---------------------------------|---------------------------------|
|-3-3-3-3-3-3-3-3-3-3-3-3-3-3-5-5-|-7-7-7-7-7-7-7-7-7-7-7-7-7-7-5-5-|


  S S S S S S S S S S S S S S S S   S S S S S S S S S S S S S S S S
|---------------------------------|---------------------------------|
|---------------------------------|---------------------------------|
|---------------------------------|---------------------------------|
|-3-3-3-3-3-3-3-3-3-3-3-3-3-3-5-5-|-2-2-2-2-2-2-2-2-2-2-2-2-2-2-2-2-|


  S S S S S S S S S S S S S S S S   S S S S S S S S S S S S S S S S
|---------------------------------|---------------------------------|
|---------------------------------|---------------------------------|
|-5-5-5-5-5-5-5-5-5-5-5-5-5-5-5-5-|---------------------------------|
|---------------------------------|-8-8-8-8-8-8-8-8-5-5-5-5-5-5-5-5-|


  S S S S S S S S S S S S S S S S   S S S S S S S S S S S S S S S S
|---------------------------------|---------------------------------|
|---------------------------------|---------------------------------|
|-5-5-5-5-5-5-5-5-5-5-5-5-5-5-5-5-|---------------------------------|
|---------------------------------|-8-8-8-8-8-8-8-8-5-5-5-5-5-5-5-5-|


  S S S S S S S S S S S S S S S S   S S S S S S S S S S S S S S S S
|---------------------------------|---------------------------------|
|---------------------------------|---------------------------------|
|-5-5-5-5-5-5-5-5-5-5-5-5-5-5-5-5-|---------------------------------|
|---------------------------------|-8-8-8-8-8-8-8-8-5-5-5-5-5-5-5-5-|


  S S S S S S S S S S S S S S S S   S S S S S S S S S S S S S S S S
|---------------------------------|---------------------------------|
|---------------------------------|---------------------------------|
|-5-5-5-5-5-5-5-5-5-5-5-5-5-5-5-5-|---------------------------------|
|---------------------------------|-8-8-8-8-8-8-8-8-5-5-5-5-5-5-5-5-|


  W          H    H      W          H    H
|----------|-----------|----------|-----------|
|----------|-----------|----------|-----------|
|-5--------|-----------|-5--------|-----------|
|----------|-8----5----|----------|-8----5----|


  S S S S S S S S S S S S S S S S   S S S S S S S S S S S S S S S S
|---------------------------------|---------------------------------|
|---------------------------------|---------------------------------|
|-5-5-5-5-5-5-5-5-5-5-5-5-5-5-5-5-|---------------------------------|
|---------------------------------|-8-8-8-8-8-8-8-8-5-5-5-5-5-5-5-5-|


  S S S S S S S S S S S S S S S S   S S S S S S S S S S S S S S S S
|---------------------------------|---------------------------------|
|---------------------------------|---------------------------------|
|-5-5-5-5-5-5-5-5-5-5-5-5-5-5-5-5-|---------------------------------|
|---------------------------------|-8-8-8-8-8-8-8-8-5-5-5-5-5-5-5-5-|


  S S S S S S S S S S S S S S S S   S S S S S S S S S S S S S S S S
|---------------------------------|---------------------------------|
|---------------------------------|---------------------------------|
|-5-5-5-5-5-5-5-5-5-5-5-5-5-5-5-5-|---------------------------------|
|---------------------------------|-8-8-8-8-8-8-8-8-5-5-5-5-5-5-5-5-|


  S S S S S S S S S S S S S S S S   S S S S S S S S S S S S S S S S
|---------------------------------|---------------------------------|
|---------------------------------|---------------------------------|
|-5-5-5-5-5-5-5-5-5-5-5-5-5-5-5-5-|---------------------------------|
|---------------------------------|-8-8-8-8-8-8-8-8-5-5-5-5-5-5-5-5-|


  S S S S S S S S S S S S S S S S   S S S S S S S S S S S S S S S S
|---------------------------------|---------------------------------|
|---------------------------------|---------------------------------|
|-5-5-5-5-5-5-5-5-5-5-5-5-5-5-5-5-|---------------------------------|
|---------------------------------|-8-8-8-8-8-8-8-8-5-5-5-5-5-5-5-5-|


  S S S S S S S S S S S S S S S S   S S S S S S S S S S S S S S S S
|---------------------------------|---------------------------------|
|---------------------------------|---------------------------------|
|-5-5-5-5-5-5-5-5-5-5-5-5-5-5-5-5-|---------------------------------|
|---------------------------------|-8-8-8-8-8-8-8-8-5-5-5-5-5-5-5-5-|


  S S S S S S S S S S S S S S S S   S S S S S S S S S S S S S S S S
|---------------------------------|---------------------------------|
|---------------------------------|---------------------------------|
|---------------------------------|---------------------------------|
|-3-3-3-3-3-3-3-3-3-3-3-3-3-3-5-5-|-7-7-7-7-7-7-7-7-7-7-7-7-7-7-5-5-|


  S S S S S S S S S S S S S S S S   S S S S S S S S S S S S S S S S
|---------------------------------|---------------------------------|
|---------------------------------|---------------------------------|
|---------------------------------|---------------------------------|
|-3-3-3-3-3-3-3-3-3-3-3-3-3-3-5-5-|-7-7-7-7-7-7-7-7-7-7-7-7-7-7-5-5-|


  S S S S S S S S S S S S S S S S   S S S S S S S S S S S S S S S S
|---------------------------------|---------------------------------|
|---------------------------------|---------------------------------|
|---------------------------------|---------------------------------|
|-3-3-3-3-3-3-3-3-3-3-3-3-3-3-5-5-|-7-7-7-7-7-7-7-7-7-7-7-7-7-7-5-5-|


  S S S S S S S S S S S S S S S S   S S S S S S S S S S S S S S S S
|---------------------------------|---------------------------------|
|---------------------------------|---------------------------------|
|---------------------------------|---------------------------------|
|-3-3-3-3-3-3-3-3-3-3-3-3-3-3-5-5-|-2-2-2-2-2-2-2-2-2-2-2-2-2-2-2-2-|


  S S S S S S S S S S S S S S S S   S S S S S S S S S S S S S S S S
|---------------------------------|---------------------------------|
|---------------------------------|---------------------------------|
|-5-5-5-5-5-5-5-5-5-5-5-5-5-5-5-5-|---------------------------------|
|---------------------------------|-8-8-8-8-8-8-8-8-5-5-5-5-5-5-5-5-|


  S S S S S S S S S S S S S S S S   S S S S S S S S S S S S S S S S
|---------------------------------|---------------------------------|
|---------------------------------|---------------------------------|
|-5-5-5-5-5-5-5-5-5-5-5-5-5-5-5-5-|---------------------------------|
|---------------------------------|-8-8-8-8-8-8-8-8-5-5-5-5-5-5-5-5-|


  S S S S S S S S S S S S S S S S   S S S S S S S S S S S S S S S S
|---------------------------------|---------------------------------|
|---------------------------------|---------------------------------|
|-5-5-5-5-5-5-5-5-5-5-5-5-5-5-5-5-|---------------------------------|
|---------------------------------|-8-8-8-8-8-8-8-8-5-5-5-5-5-5-5-5-|


  S S S S S S S S S S S S S S S S   S S S S S S S S S S S S S S S S
|---------------------------------|---------------------------------|
|---------------------------------|---------------------------------|
|-5-5-5-5-5-5-5-5-5-5-5-5-5-5-5-5-|---------------------------------|
|---------------------------------|-8-8-8-8-8-8-8-8-5-5-5-5-5-5-5-5-|


  S S S S S S S S S S S S S S S S   S S S S S S S S S S S S S S S S
|---------------------------------|---------------------------------|
|---------------------------------|---------------------------------|
|-5-5-5-5-5-5-5-5-5-5-5-5-5-5-5-5-|---------------------------------|
|---------------------------------|-8-8-8-8-8-8-8-8-5-5-5-5-5-5-5-5-|


  S S S S S S S S S S S S S S S S   S S S S S S S S S S S S S S S S
|---------------------------------|---------------------------------|
|---------------------------------|---------------------------------|
|-5-5-5-5-5-5-5-5-5-5-5-5-5-5-5-5-|---------------------------------|
|---------------------------------|-8-8-8-8-8-8-8-8-5-5-5-5-5-5-5-5-|


  S S S S S S S S S S S S S S S S   S S S S S S S S S S S S S S S S
|---------------------------------|---------------------------------|
|---------------------------------|---------------------------------|
|-5-5-5-5-5-5-5-5-5-5-5-5-5-5-5-5-|---------------------------------|
|---------------------------------|-8-8-8-8-8-8-8-8-5-5-5-5-5-5-5-5-|


  S S S S S S S S S S S S S S S S   S S S S S S S S S S S S S S S S
|---------------------------------|---------------------------------|
|---------------------------------|---------------------------------|
|-5-5-5-5-5-5-5-5-5-5-5-5-5-5-5-5-|---------------------------------|
|---------------------------------|-8-8-8-8-8-8-8-8-5-5-5-5-5-5-5-5-|


  S S S S S S S S S S S S S S S S   S S S S S S S S S S S S S S S S
|---------------------------------|---------------------------------|
|---------------------------------|---------------------------------|
|---------------------------------|---------------------------------|
|-3-3-3-3-3-3-3-3-3-3-3-3-3-3-5-5-|-7-7-7-7-7-7-7-7-7-7-7-7-7-7-5-5-|


  S S S S S S S S S S S S S S S S   S S S S S S S S S S S S S S S S
|---------------------------------|---------------------------------|
|---------------------------------|---------------------------------|
|---------------------------------|---------------------------------|
|-3-3-3-3-3-3-3-3-3-3-3-3-3-3-5-5-|-7-7-7-7-7-7-7-7-7-7-7-7-7-7-5-5-|


  S S S S S S S S S S S S S S S S   S S S S S S S S S S S S S S S S
|---------------------------------|---------------------------------|
|---------------------------------|---------------------------------|
|---------------------------------|---------------------------------|
|-3-3-3-3-3-3-3-3-3-3-3-3-3-3-5-5-|-2-2-2-2-2-2-2-2-2-2-2-2-2-2-2-2-|


  S S S S S S S S S S S S S S S S   S S S S S S S S S S S S S S S S
|---------------------------------|---------------------------------|
|---------------------------------|---------------------------------|
|---------------------------------|---------------------------------|
|-3-3-3-3-3-3-3-3-3-3-3-3-3-3-5-5-|-7-7-7-7-7-7-7-7-7-7-7-7-7-7-5-5-|


  S S S S S S S S S S S S S S S S   S S S S S S S S S S S S S S S S
|---------------------------------|---------------------------------|
|---------------------------------|---------------------------------|
|-5-5-5-5-5-5-5-5-5-5-5-5-5-5-5-5-|---------------------------------|
|---------------------------------|-8-8-8-8-8-8-8-8-5-5-5-5-5-5-5-5-|


  S S S S S S S S S S S S S S S S   S S S S S S S S S S S S S S S S
|---------------------------------|---------------------------------|
|---------------------------------|---------------------------------|
|-5-5-5-5-5-5-5-5-5-5-5-5-5-5-5-5-|---------------------------------|
|---------------------------------|-8-8-8-8-8-8-8-8-5-5-5-5-5-5-5-5-|


  S S S S S S S S S S S S S S S S   S S S S S S S S S S S S S S S S
|---------------------------------|---------------------------------|
|---------------------------------|---------------------------------|
|-5-5-5-5-5-5-5-5-5-5-5-5-5-5-5-5-|---------------------------------|
|---------------------------------|-8-8-8-8-8-8-8-8-5-5-5-5-5-5-5-5-|


  S S S S S S S S S S S S S S S S   S S S S S S S S S S S S S S S S
|---------------------------------|---------------------------------|
|---------------------------------|---------------------------------|
|-5-5-5-5-5-5-5-5-5-5-5-5-5-5-5-5-|---------------------------------|
|---------------------------------|-8-8-8-8-8-8-8-8-5-5-5-5-5-5-5-5-|


  S S S S S S S S S S S S S S S S   S S S S S S S S S S S S S S S S
|---------------------------------|---------------------------------|
|---------------------------------|---------------------------------|
|-5-5-5-5-5-5-5-5-5-5-5-5-5-5-5-5-|---------------------------------|
|---------------------------------|-8-8-8-8-8-8-8-8-5-5-5-5-5-5-5-5-|


  S S S S S S S S S S S S S S S S   S S S S S S S S S S S S S S S S
|---------------------------------|---------------------------------|
|---------------------------------|---------------------------------|
|-5-5-5-5-5-5-5-5-5-5-5-5-5-5-5-5-|---------------------------------|
|---------------------------------|-8-8-8-8-8-8-8-8-5-5-5-5-5-5-5-5-|


  S S S S S S S S S S S S S S S S   S S S S S S S S S S S S S S S S
|---------------------------------|---------------------------------|
|---------------------------------|---------------------------------|
|-5-5-5-5-5-5-5-5-5-5-5-5-5-5-5-5-|---------------------------------|
|---------------------------------|-8-8-8-8-8-8-8-8-5-5-5-5-5-5-5-5-|


  S S S S S S S S S S S S S S S S   S S S S S S S S S S S S S S S S
|---------------------------------|---------------------------------|
|---------------------------------|---------------------------------|
|-5-5-5-5-5-5-5-5-5-5-5-5-5-5-5-5-|---------------------------------|
|---------------------------------|-8-8-8-8-8-8-8-8-5-5-5-5-5-5-5-5-|


  W          H    H      W          H    H
|----------|-----------|----------|-----------|
|----------|-----------|----------|-----------|
|-5--------|-----------|-5--------|-----------|
|----------|-8----5----|----------|-8----5----|


  W          H    H      W          H    H
|----------|-----------|----------|-----------|
|----------|-----------|----------|-----------|
|-5--------|-----------|-5--------|-----------|
|----------|-8----5----|----------|-8----5----|


  W          H    H      W          H    H
|----------|-----------|----------|-----------|
|----------|-----------|----------|-----------|
|-5--------|-----------|-5--------|-----------|
|----------|-8----5----|----------|-8----5----|


  W          H    H      W          H    H      Wx4
|----------|-----------|----------|-----------|--------*|
|----------|-----------|----------|-----------|--------*|
|-5--------|-----------|-5--------|-----------|--------*|
|----------|-8----5----|----------|-8----5----|--------*|



Duration Legend
---------------
W - whole; H - half; Q - quarter; E - 8th; S - 16th; T - 32nd; X - 64th; a - acciaccatura
+ - note tied to previous; . - note dotted; .. - note double dotted
Uncapitalized letters represent notes that are staccato (1/2 duration)
Irregular groupings are notated above the duration line
Duration letters will always appear directly above the note/fret number it represents the
duration for.  Duration letters with no fret number below them represent rests.  Multi-
bar rests are notated in the form Wxn, where n is the number of bars to rest for.  Low
melody durations appear below the staff

Tablature Legend
----------------
 h   - hammer-on
 p   - pull-off
 b   - bend
 pb  - pre-bend
 r   - bend release (if no number after the r, then release immediately)
 /\  - slide into or out of (from/to "nowhere")
 s   - legato slide
 S   - shift slide
 - natural harmonic
[n]  - artificial harmonic
n(n) - tapped harmonic
 ~   - vibrato
 tr  - trill
 T   - tap
 TP  - trem. picking
 PM  - palm muting
\n/  - tremolo bar dip; n = amount to dip
 \n  - tremolo bar down
 n/  - tremolo bar up
/n\  - tremolo bar inverted dip
 =   - hold bend; also acts as connecting device for hammers/pulls
 <> - volume swell (louder/softer)
 x   - on rhythm slash represents muted slash
 o   - on rhythm slash represents single note slash

Misc Legend
-----------
 |  - bar
||  - double bar
||o - repeat start
o|| - repeat end
*|  - double bar (ending)
 :  - bar (freetime)
 $  - Segno
 &  - Coda
Tempo markers -  = BPM(8/16=s8/s16), where s8 = swing 8ths, s16 = swing 16ths
            
Submit corrections



        Ghost Of Vincent Price lessons Hard to play? Try these video lessons and learn fast Ghost Of Vincent Price lessons
        
↑ Back to top | Tablatures and chords for acoustic guitar and electric guitar, ukulele, drums are parodies/interpretations of the original songs. You may use it for private study, scholarship, research or language learning purposes only