» » »

Wednesday 13 - Miss Morgue Tabs

Artists:  A B C D E F G H I J K L M N O P Q R S T U V W X Y Z # 

Miss Morgue Tabs

(ver. 2) Click to play this song!
Wednesday 13
 Rating:
4/5 (4 votes)


 Miss Morgue lessons Tabs too difficult? Try these video lessons and learn fast
 
                INTRO
D----------------------------------------|
A----------------------------------------|
F----------------------------------------|
C---7~----5~----4~---2~----2/////14------|
G----------------------------------------|
C----------------------------------------|

D------------------------------------------------------------------------------------------------|
A------------------------------------------------------------------------------------------------|
F-----------------------------------------------------------11------11--------11--------11h12~---|
C---14~-14h16p14~-14h16p14~-14h16p14~14h16h17~-------12~-12---12~-12--12~-12---12~-12------------|
G------------------------------------------------------------------------------------------------|
C------------------------------------------------------------------------------------------------|

D-------------------------------------------------|
A-------------------------------------------------|
F--------11-------11------11--------11h12~--------|
C-11~-11---11~-11---11~-11---11~-11-----------9~--|
G-------------------------------------------------|
C-------------------------------------------------|

D------------------------------------------------------------------------------------------|
A-----------------------------------------------7-------7-------7--------7h8~--------------|
F--////9--9~-9h11p9~--9h11p9~--9h11h12-----7~-7---7~--7---7~--7---7~--7--------------------|
C------------------------------------------------------------------------------------------|
G------------------------------------------------------------------------------------------|
C------------------------------------------------------------------------------------------|


D------------------------------------------------|
A-------7-------7-------7-------7h8~-------------|
F--6~-6---6~--6---6~--6---6~--6-------4~---------|
C------------------------------------------------|
G------------------------------------------------|
C------------------------------------------------|

Chorus

D-----------------------------------------------------|
A-----------------------------------------------------|
F-14-14-14-14--12-12-12-12--11-11-11-11---9-9-9-9-----| 
C-14-14-14-14--12-12-12-12--11-11-11-11---9-9-9-9-----| x2
G-12-12-12-12--10-10-10-10---9--9--9--9---7-7-7-7-----|
C-----------------------------------------------------|

D----------------------------------------------------------------|
A----------------------------------------------------------------|
F---7---12---7--7---11--11--9--9---7--7---12--14-14-14-14--------|
C---7---12---7--7---11--11--9--9---7--7---12--14-14-14-14--------|
G---5---10---5--5----9---9--7--7---5--5---10--12-12-12-12--------|
C----------------------------------------------------------------|

Chorus

D-----------------------------------------------------|
A-----------------------------------------------------|
F-14-14-14-14--12-12-12-12---11-11-11-11---9-9-9-9----| 
C-14-14-14-14--12-12-12-12---11-11-11-11---9-9-9-9----| x2
G-12-12-12-12--10-10-10-10----9--9--9--9---7-7-7-7----|
C-----------------------------------------------------|

Bridge

D|----------------------------------------------------------------------------------------|
A|--10---12---14---15---17---15---14---12---15---14---12---10---12---14---15---17------22-|
F|--12b--14b--16b--17b--19b--17b--16b--14b--17b--16b--14b--12b--14b--16b--17b--19b--------|
C|----------------------------------------------------------------------------------------|
G|----------------------------------------------------------------------------------------|
C|----------------------------------------------------------------------------------------|

Chorus

D-----------------------------------------------------|
A-----------------------------------------------------|
F-14-14-14-14--12-12-12-12---11-11-11-11---9-9-9-9----| 
C-14-14-14-14--12-12-12-12---11-11-11-11---9-9-9-9----| x2
G-12-12-12-12--10-10-10-10----9--9--9--9---7-7-7-7----|
C-----------------------------------------------------|

Outro


D--------------------------------------------|
A--------------------------------------------|
F---7---12---7--7---11--11--9--9-------7-----|
C---7---12---7--7---11--11--9--9-------7-----|
G---5---10---5--5----9---9--7--7-------5-----|
C-------(4 Times)---------------then---------|

************************************
| /   slide up
| h   hammer-on
| p   pull-off
| ~   vibrato
| +   harmonic
| b   bend
************************************
            
Submit corrections



        Miss Morgue lessons Hard to play? Try these video lessons and learn fast Miss Morgue lessons
        
↑ Back to top | Tablatures and chords for acoustic guitar and electric guitar, ukulele, drums are parodies/interpretations of the original songs. You may use it for private study, scholarship, research or language learning purposes only