» » »

Wednesday 13 - I Want You Dead Bass

Artists:  A B C D E F G H I J K L M N O P Q R S T U V W X Y Z # 

I Want You Dead Bass

(ver. 1) Click to play this song!
Wednesday 13
 Rating:
4/5 (4 votes)


 I Want You Dead lessons Tabs too difficult? Try these video lessons and learn fast
 
                -----------------------------------------------------------------------------
                             I want you...dead - Wednesday 13
-----------------------------------------------------------------------------

Intro:

F|-----------------------------------------------------------------|
C|-----------------------------------------------------------------|
G|-00--00--00--00--000~--------------------------------------------|
C|-----------------------------------------------------------------|

F|-----------------------------------------------------------------|
C|-----------------------------------------------------------------|
G|-0~-5055-055-055-0555--0~-5055-055-055-0888----------------------|
C|-----------------------------------------------------------------|(x2)

F|-----------------------------------------------------------------|
C|-----------------------------------------------------------------|
G|-------------------5\3-33-3\1-11---------------------------------|
C|-00-3~-00-5~-00-3~-----------------------------------------------|(x2)

Verse:

F|-----------------------------------------------------------------|
C|-----------------------------------------------------------------|
G|-0~-5055-055-055-0555--0~-5055-055-055-0888----------------------|
C|-----------------------------------------------------------------|(x2)

Pre-chorus(the part with "I only want you...dead"):

F|-----------------------------------------------------------------|
C|-----------------------------------------------------------------|
G|-------------------5\3-33-3\1-11---------------------------------|
C|-00-3~-00-5~-00-3~-----------------------------------------------|(x2)

Chorus:

F|-----------------------------------------------------------------|
C|-----------------------------------------------------------------|
G|-11111111(x2)-55555555(x2)-11111111(x2)----5----5----5----5------|
C|----------------------------------------00---00---00---00--------|

F|-----------------------------------------------------------------|
C|-----------------------------------------------------------------|
G|-11111111(x2)-55555555(x2)-33333333(x2)-11111111-33333333--------|
C|-----------------------------------------------------------------|

Main riff:

F|-----------------------------------------------------------------|
C|-----------------------------------------------------------------|
G|-0~-5055-055-055-0555--0~-5055-055-055-0888----------------------|
C|-----------------------------------------------------------------|(x2)

Verse 2 like the first one!
Pre-chorus 2 like the first one!
Chorus 2 like the first one!

Before solo:

F|-----------------------------------------------------------------|
C|-----------------------------------------------------------------|
G|-0~-5055-055-055-0555--0~-5055-055-055-0888----------------------|
C|-----------------------------------------------------------------|(x2)

Solo:

F|-----------------------------------------------------------------|
C|-----------------------------------------------------------------|
G|-11111111(x2)-55555555(x2)-11111111(x2)----5----5----5----5------|
C|----------------------------------------00---00---00---00--------|

F|-----------------------------------------------------------------|
C|-----------------------------------------------------------------|
G|-11111111(x2)-55555555(x2)-33333333(x2)-11111111-33333333--------|
C|-----------------------------------------------------------------|

Stop part:

F|-----------------------------------------------------------------|
C|-----------------------------------------------------------------|
G|-00--00--00--00--000~--------------------------------------------|
C|-----------------------------------------------------------------|

Main riff:

F|-----------------------------------------------------------------|
C|-----------------------------------------------------------------|
G|-0~-5055-055-055-0555--0~-5055-055-055-0888----------------------|
C|-----------------------------------------------------------------|

F|-----------------------------------------------------------------|
C|-----------------------------------------------------------------|
G|-0~-5055-055-055-0555--0~-5055-005-------------------------------|
C|-----------------------------------------------------------------|

Verse 3 like the others!
Pre-chorus 3 like the others!
Chorus 3 like the others!

Ending part:

F|-----------------------------------------------------------------|
C|-----------------------------------------------------------------|
G|-0~-5055-055-055-0555--0~-5055-055-055-0888----------------------|
C|-----------------------------------------------------------------|

F|-----------------------------------------------------------------|
C|-----------------------------------------------------------------|
G|-0~-5055-055-055-0555--0~-5055-005-------------------------------|
C|-----------------------------------------------------------------|

F|-----------------------------------------------------------------|
C|-----------------------------------------------------------------|
G|-0~-5055-055-055-0555--0~-5055-055-055-0888----------------------|
C|-----------------------------------------------------------------|

F|-----------------------------------------------------------------|
C|-----------------------------------------------------------------|
G|-0~-5055-055-055-0555--0~-5055-005--8885-------------------------|
C|-----------------------------------------------------------------|

The main riff is pretty tricky, but the rest of the song is easy. Enjoy!
            
Submit corrections



        I Want You Dead lessons Hard to play? Try these video lessons and learn fast I Want You Dead lessons
        
↑ Back to top | Tablatures and chords for acoustic guitar and electric guitar, ukulele, drums are parodies/interpretations of the original songs. You may use it for private study, scholarship, research or language learning purposes only