» » »

Wednesday 13 - Dead Carolina Bass

Artists:  A B C D E F G H I J K L M N O P Q R S T U V W X Y Z # 

Dead Carolina Bass

(ver. 1) Click to play this song!
Wednesday 13
 Rating:
4/5 (4 votes)


 Dead Carolina lessons Tabs too difficult? Try these video lessons and learn fast
 
                ----------------------------------------------------------------------
                             Dead Carolina - Wednesday 13
----------------------------------------------------------------------

Intro:

F|----------------------------------------------------------------|
C|----------------------------------------------------------------|
G|-5~-0~-1~-3~----------------------------------------------------|
C|----------------------------------------------------------------|


F|----------------------------------------------------------------|
C|----------------------------------------------------------------|
G|-5~-0~-1~-33333-------------------------------------------------|
C|----------------------------------------------------------------|

Intro 2:

F|----------------------------------------------------------------|
C|----------------------------------------------------------------|
G|-55555555-00000000-11111111-33333333----------------------------|
C|----------------------------------------------------------------|

F|----------------------------------------------------------------|
C|----------------------------------------------------------------|
G|-55555555-00000000-11111111-33333-------------------------------|
C|----------------------------------------------------------------|

Verse:

It all C. You can figure out the rhythm.

Chorus:

F|----------------------------------------------------------------|
C|----------------------------------------------------------------|
G|-55555555-00000000-11111111-33333333----------------------------|
C|----------------------------------------------------------------|(x2)

Post chorus:

F|----------------------------------------------------------------|
C|----------------------------------------------------------------|
G|-88888888-77777777-66666666-55555555----------------------------|
C|----------------------------------------------------------------|

F|----------------------------------------------------------------|
C|----------------------------------------------------------------|
G|-88888888-77777777-66666666-55----------------------------------|
C|----------------------------------------------------------------|

And the second time, you play it the same, but instead of hitting 8 5s, you hit it twice (55)!

Verse 2 as the first
Chorus 2 as the first
Post chorus 2 as the first

The solo is basically the verse. It`s all C.

After the solo it comes a post chorus part:

F|-----------------------------------------------------------------|
C|-----------------------------------------------------------------|
G|-88888888-77777777-66666666-55555555-----------------------------|
C|-----------------------------------------------------------------|(x3)

F|-----------------------------------------------------------------|
C|-----------------------------------------------------------------|
G|-88888888-77777777-66666666-55-----------------------------------|
C|-----------------------------------------------------------------|

And the outro is basically all C. As in the verse and the solo, it`s all about the 
rhythm. You can play the C note on open string or on the 5th fret. It`s all about you and 
your pleasure. Enjoy!
            
Submit corrections



        Dead Carolina lessons Hard to play? Try these video lessons and learn fast Dead Carolina lessons
        
↑ Back to top | Tablatures and chords for acoustic guitar and electric guitar, ukulele, drums are parodies/interpretations of the original songs. You may use it for private study, scholarship, research or language learning purposes only