» » »

We Are The In Crowd - The Worst Thing About Me Bass

Artists:  A B C D E F G H I J K L M N O P Q R S T U V W X Y Z # 

The Worst Thing About Me Bass

(ver. 1) Click to play this song!
We Are The In Crowd
 Rating:
4/5 (4 votes)
    The Worst Thing About Me lessons Tabs too difficult? Try these video lessons and learn fast
                Bass Player: Mike Ferri
Tuning: C# G# C# F#



| /  slide up
| \  slide down
| h  hammer-on
| p  pull-off
| ~  vibrato
| +  harmonic
| x  Mute note
| <> Bend note

Intro - Bass comes in at (0:14)

F#|-------------------------------------------------|
C#|-------------------------7--7--7--7--------------|
G#|-3--3--3--3--7--7--7--7--------------8--8--8--8--|
C#|-------------------------------------------------|

F#|--------------------------------------------|
C#|-------------7--7--7--7---------------------|
G#|-5--5--5--5--------------8--8--8--8--8--8---|
C#|--------------------------------------------|

Chorus (0:26)

F#|--------------------------------------------|
C#|--------------------------------------------|
G#|-3333-3333-7777-7777-----------8888-8-10-8--|
C#|---------------------7777-7777--------------|

F#|----------------------------------------------------------------------|
C#|----------------------------------------------------------------------|
G#|-15-15-15-15--15-15-15-15--7777-7777----------------------------------|
C#|-------------------------------------7777-7777-3333-3333--7777-777-5--|

Pre-Verse (0:44)

F#|------------------------------------------|
C#|------------------------------------3333--|
G#|-3333-3333--------------------------------|
C#|-----------2222-2222-7777-7777-3333-------|

Verse (0:50)

F#|----------------------------------------------------------------------------------|
C#|-----------6666-6666-7777-7777----------------------------------------------------|
G#|-3333-3333---------------------8888-8888-3333-3333-7777-7777----------------------|
C#|-------------------------------------------------------------7777-7777-3333-3333--|

Pre-Chorus (1:04)

F#|-----------------------------------------------------|
C#|-----------------------------------------------------|
G#|-5-5--5-5--5-----------------------------------------|
C#|--------------7-7--7-7--7--3333-333/17-15-14--15-14--|

F#|----------------------------------------|
C#|----------------------------------------|
G#|-5-5--5-5--5----------------------------|
C#|--------------7-7--7-7--7--3333-3333-3--|

Chorus (1:17)

F#|--------------------------------------------|
C#|--------------------------------------------|
G#|-3333-3333-7777-7777-----------8888-8-10-8--|
C#|---------------------7777-7777--------------|

F#|-------------------------------------------------------------------------------|
C#|-------------------------------------------------------------------------------|
G#|-15-15-15-15--15-15-15-15--7777-7777-------------------------------------------|
C#|-------------------------------------7777-7777-3333-3333--7777-7777-5555-5555--|

Bridge (1:34)

F#|----------------------------------------------------------------------------------|
C#|------------------------------------------------------------------------5555-5555-|
G#|----------------------------------------------------------------------------------|
C#|-3333-33333-7777-7777-5555-5555-5555-575--3333-33333-7777-7777-5555-5555----------|

Pre-Chorus (1:48)

F#|------------------------------------|
C#|------------------------------------|
G#|-3---------7----------12------------|
C#|------------------------------------|

(Let each note ring out)

Chorus (1:56)

F#|--------------------------------------------|
C#|--------------------------------------------|
G#|-3333-3333-7777-7777-----------8888-8-10-8--|
C#|---------------------7777-7777--------------|

F#|----------------------------------------------------------|
C#|----------------------------------------------------------|
G#|-15-15-15-15--15-15-15-15--7777-7777----------------------|
C#|-------------------------------------7777-7777-3333-3333--|

End Chorus (2:09)

F#|--------------------------------------------|
C#|--------------------------------------------|
G#|-3333-3333-7777-7777-----------8888-8-10-8--|
C#|---------------------7777-7777--------------|

F#|-----------------------------------------------------------|
C#|-----------------------------------------------------------|
G#|-3333-3333-------------------------------------------------|
C#|-----------2222-2222-7777-7777-3333-3333-7777-777-5--------|

Ending (2:26)

F#|------------------||
C#|------------------||
G#|------------------||
C#|-33333------------||


===============================================================================
            
Submit corrections

↑ Back to top | Tablatures and chords for acoustic guitar and electric guitar, ukulele, drums are parodies/interpretations of the original songs. You may use it for private study, scholarship, research or language learning purposes only