» » »

We Are Scientists - Bomb Inside The Bomb Tabs

Artists:  A B C D E F G H I J K L M N O P Q R S T U V W X Y Z # 

Bomb Inside The Bomb Tabs

(ver. 1) Click to play this song!
We Are Scientists
 Rating:
4.6/5 (10 votes)


 Bomb Inside The Bomb lessons Tabs too difficult? Try these video lessons and learn fast
 
                This is an awesome from the We Are Scientists album "Safety Fun And Learning(In That Order)"


Intro/1st Verse
e------------------------------------------------------------------------|
G------------------------------------------------------------------------|
B-----------7---9-9--------4-4--3--2-2-----------------------------------|
D---2-------7---9-9--------4-4--3--2-2-----------------------------------|
A---2-------5---7-7--------2-2--1--0-0-----------------------------------|
E---0--------------------------------------------------------------------| x12


Chorus e---------------------------------------------------------------------------|
G----------------------------------------------------------------------------------|
B-------------2-2-2-2--------------------------2-2-2-2--------------6-6-6-6--------|
D---4-4-4-4---2-2-2-2----2-2-2-2---6-6-6-6-----2-2-2-2----4-4-4-4---6-6-6-6--------|
A---4-4-4-4---0-0-0-0----2-2-2-2---6-6-6-6-----0-0-0-0----4-4-4-4---4-4-4-4--------|
E---2-2-2-2--------------0-0-0-0---4-4-4-4----------------2-2-2-2------------------|

e-------------------------------------------------------------------------|
G-------------------------------------------------------------------------|
B---2-2-2-2-------------------------7-7-7-7-------------------------------|
D---2-2-2-2---4-4-4-4----2-2-2-2----7-7-7-7----7-7-7-7-7-7-7-7----5-5-5-5-|
A---0-0-0-0---4-4-4-4----2-2-2-2----5-5-5-5----7-7-7-7-7-7-7-7----5-5-5-5-|
E-------------2-2-2-2----0-0-0-0---------------5-5-5-5-5-5-5-5----3-3-3-3-|

e------------|
G------------|
B------------|
D--3-3-3-3---|
A--3-3-3-3---|
E--1-1-1-1---|

Verse 2
e------------------------------------------------------------------------|
G------------------------------------------------------------------------|
B---9---13-13-13---13----11--11----14--14--14----14----------------------|
D---x----x--x--x----x-----x---x-----x---x---x-----x----------------------|
A---7---11-11-11---11-----9---9----12--12--12----12----------------------|
E------------------------------------------------------------------------| x10

Chorus - same as before


Interlude

e------------------------------------------|
G------------------------------------------|
B----9---------6h7p6h7p6h7p6---------------|
D-------------------------------7---9------|
A-------7-------------------------------7--|
E------------------------------------------| x2

e------------------------------------------------------------------------|
G----------------------------------------9---7---9-----------------------|
B------9-------------8--9--8----------9----9---9-------------------------|
D-----------------------------9---7--------------------------------------|
A---------7--------------------------------------------------------------|
E----------------9-------------------------------------------------------|

e------------------------------------------|
G------------------------------------------|
B----9---------6h7p6h7p6h7p6---------------|
D-------------------------------7---9------|
A-------7-------------------------------7--|
E------------------------------------------| x2

e-----------------------------------------------------------------------|
G-----------------------------7----------10---9---7---------------------|
B------9-----------8-9-8----------9--8------9---9---9-------------------|
D-------------------------9---------------------------------------------|
A---------7-------------------------------------------------------------|
E--------------9--------------------------------------------------------|

e-----------------------------------------|
G------9---9---9---9---7---7---10---10----|
B--------9---9---9---9---9---9----9----9--|
D-----------------------------------------|
A-----------------------------------------|
E-----------------------------------------| x3

e--------------------------------------------|
G----10---10---10---10---12---12---12---12---|
B-------9----9----9----9----9----9----9----9-|
D--------------------------------------------|
A--------------------------------------------|
E--------------------------------------------|

Quiet Bit
e------------------------------------------------------------------------|
G------------------------------------------------------------------------|
B-------2----------------------------2-----------------------------------|
D-------------4-----2------6----------------4----6-6-6-6-6-6-------------|
A----0----------------------------0--------------4-4-4-4-4-4-------------|
E----------2------0------4---------------2-------------------------------|

e------------------------------------------------------------------------|
G------------------------------------------------------------------------|
B------2--------------------7--------------------------------------------|
D------------4------2--------------------7-7-7-7-7-7---------------------|
A---0--------------------5---------7-7-7-7-7-7-7-7-7---------------------|
E---------2------0-------------5-5-5-5-5-5-5-5-5-5-5---------------------|

The Cough

e------------------------------------------------------------------------|
G------------------------------------------------------------------------|
B----EHEM----------------------------------------------------------------|
D------------------------------------------------------------------------|
A------------------------------------------------------------------------|
E------------------------------------------------------------------------|


Chorus- Same as before

Outro
e------------------------------------------------------------------------|
G------------------------------------------------------------------------|
B----9---------4-4-4-4--3-3--2-2-2---------------------------------------|
D--------------4-4-4-4--3-3--2-2-2---------------------------------------|
A--------7-----2-2-2-2--1-1--0-0-0---------------------------------------|
E------------------------------------------------------------------------|
            
Submit corrections



        Bomb Inside The Bomb lessons Hard to play? Try these video lessons and learn fast Bomb Inside The Bomb lessons
        
↑ Back to top | Tablatures and chords for acoustic guitar and electric guitar, ukulele, drums are parodies/interpretations of the original songs. You may use it for private study, scholarship, research or language learning purposes only