» » »

Waylon Jennings - Only Daddy That'll Walk The Line Tabs

Artists:  A B C D E F G H I J K L M N O P Q R S T U V W X Y Z # 

Only Daddy That'll Walk The Line Tabs

(ver. 1) Click to play this song!
Waylon Jennings
 Rating:
4/5 (4 votes)

 Only Daddy That'll Walk The Line lessons Tabs too difficult? Try these video lessons and learn fast
 
                Only Daddy That’ll Walk the Line
Waylon Jennings
Key Eb

This is a good one for working on your major pentatonics way up the neck.

E------------------xxx----xxx------------------------------------|
B-----11-13-11--11-888-11-888-11-pbr----------------------11-----|
G-/12---------------------------(12)10-8--8-8-6-8-8-8-6-8-10(12)-|
D------------------------------------------------------------bh--|
A----------------------------------------------------------------|
E----------------------------------------------------------------| 

E---------------/11----------------------------------------------------------------|
B---------11-13-----16-16-------------------16-------------16----------------------|
G-8-10/12----------------(17)15-13----13-13---(17)15-13------(17)15-13-13----13-13-|
D-------------------------pbr------16----------pbr------15----pbr---------15-------|
A----------------------------------------------------------------------------------|
E----------------------------------------------------------------------------------| 

E--------------------------------------------------------------------------------|
B----------16-18-18---b---15-—-r---------18--pbr--------------------------18-20--|
G-13-15/17----------17(19)—-(19)17----15---(19)17----15--1515-15-15-17/19--------|
D----------------------------------18-------------18-----------------------------|
A--------------------------------------------------------------------------------|
E--------------------------------------------------------------------------------| 

E--------------------------------------------------------------------------------|
B-20(21)-(21)(21)(21)20-18--------------------------/16--------------------------|
G---bh--------------r------17(19)-(19)(19)(19)17-15--------ORGAN-----------------|
D---------------------------bh---------------r-----------------------------------|
A--------------------------------------------------------------------------------|
E--------------------------------------------------------------------------------| 

E------------------------------------------|
B-13-------13-13-13-13---------------------|
G-17(18)17-15-17-15-15--15-----15----15----|
D---b--r----------------15(17)(17)15-13----|
A-------------------------b------r---------|
E------------------------------------------|
            
Submit corrections


        Only Daddy That'll Walk The Line lessons Hard to play? Try these video lessons and learn fast Only Daddy That'll Walk The Line lessons
        
↑ Back to top | Tablatures and chords for acoustic guitar and electric guitar, ukulele, drums are parodies/interpretations of the original songs. You may use it for private study, scholarship, research or language learning purposes only