» » »

Waylon Jennings - Luckenbach Texas Tabs

Artists:  A B C D E F G H I J K L M N O P Q R S T U V W X Y Z # 

Luckenbach Texas Tabs

(ver. 1) Click to play this song!
Waylon Jennings
 Rating:
4.3/5 (21 vote)

 Luckenbach Texas lessons Tabs too difficult? Try these video lessons and learn fast
 
                [Verse]
     G   C G     C D G     C   G     C D G            D   G

e|---3---0-3---|-0-2-3---|-0---3---|-0-2-3--|---------2---3--|
B|---0---1-0---|-1-3-0---|-1---0---|-1-3-0--|-1-1-----3---0--|
G|---0---0-0---|-0-2-0---|-0---0---|-0-2-0--|-----0-0-2---0--|
D|---0---2-0---|-2-0-0---|-2---0---|-2-0-0--|-2-0---------0--|
A|---2---3-2---|-3---2---|-3---2---|-3---2--|-----3-2-----2--|
E|---3-----3---|-----3---|-----3---|-----3--|-------------3--|


[Chorus]


e|-------------------------|-----------------------|-------------------|
B|-------------------------|----1---------1--------|------3----1----3--|
G|-----0-----------0-------|--4--2~~0---4---2~~0---|-----2----2----2---|
D|---4---2~~0----4---2~~0--|-----------------------|----0----0----0----|
A|-------------------------|-----------------------|-------------------|
E|-------------------------|-----------------------|-------------------|

                                      C          Am
e|-------------------------|----------0-----------------|------------------|
B|-------------------------|----------1-------------0h1-|----3-----1----3--|
G|-----0-----------0-------|----------0----------2------|---2-----2----2---|
D|---4---2~~0----4---2~~0--|--0-2-3~~-2---------2-2-----|--0-----0----0----|
A|-------------------------|----------3-3-2-0-----------|------------------|
E|-------------------------|----------------------------|------------------|

                             Am  D     G  Am  D
e|------------------------|--0---2---|-3---0--2--|
B|------------------------|--1---3---|-0---1--3--|
G|-----0----------0-------|--2---2---|-0---2--2--|
D|---4---2~~0---4---2~~0--|--2---0---|-0---2--0--|
A|------------------------|----------|-2---------|
E|------------------------|----------|-3---------|


[Verse]
     G                        G     Am    D
e|---3----------------------|-3------0----2---------------------|
B|---0----------------------|-0------1----3---------------------|
G|---0----0-2-0------0-2-0--|-0------2----2-----0-2-0-----0-2-0-|
D|---0---0---------0--------|-0------2----0----0---------0------|
A|---2----------------------|-2---------------------------------|
E|---3-3---------3----------|-3---------------3--------3--------|

     G               C       Am                         D    G
e|---3---------------0--------------|-------------------2----3--|
B|---0---------------1----------0h1-|------1--1---------3----0--|
G|---0---------------0-------2------|------------0--0---2----0--|
D|---0-----0-2-3~~~--2------2-2-----|------2--0---------0----0--|
A|---2---------------3--------------|------------3--2--------2--|
E|---3------------------------------|------------------------3--|

[Chorus]


e|-------------------------|-----------------------|---------------------------|
B|-------------------------|-----------------------|----1------------1---------|
G|-----0-----------0-------|----0-----------0------|--4---2~~0-----4---2~~0----|
D|---4---2~~0----4---2~~0--|--4---2~~0----4---2~~0-|---------------------------|
A|-------------------------|-----------------------|---------------------------|
E|-------------------------|-----------------------|---------------------------|


e|-------------------|
B|-----3----1----3---|
G|----2----2----2----|
D|---0----0----0-----|
A|-------------------|
E|-------------------|
                           G          C            Am
e|-----------------------|-3----------0---------|--------------------------|
B|-----------------------|-0----------1---------|------0h1------3---1---3--|
G|-----0----------0------|-0----------0---------|---2----------2---2---2---|
D|---4---2~~0---4---2~~0-|-0--0-2-3~~-2---------|--2-2--------0---0---0----|
A|-----------------------|-2----------3--3-2-0--|--------------------------|
E|-----------------------|-3--------------------|--------------------------|


e|-------------------------|-----------------------|---------------------------|
B|-------------------------|-----------------------|----1------------1---------|
G|-----0-----------0-------|----0-----------0------|--4---2~~0-----4---2~~0----|
D|---4---2~~0----4---2~~0--|--4---2~~0----4---2~~0-|---------------------------|
A|-------------------------|-----------------------|---------------------------|
E|-------------------------|-----------------------|---------------------------|

e|-------------------|
B|-----3----1----3---|
G|----2----2----2----|
D|---0----0----0-----|
A|-------------------|
E|-------------------|
                       
                           G          C            Am
e|-----------------------|-3----------0---------|--------------------------|
B|-----------------------|-0----------1---------|------0h1------3---1---3--|
G|-----0----------0------|-0----------0---------|---2----------2---2---2---|
D|---4---2~~0---4---2~~0-|-0--0-2-3~~-2---------|--2-2--------0---0---0----|
A|-----------------------|-2----------3--3-2-0--|--------------------------|
E|-----------------------|-3--------------------|--------------------------|


[Outro] 
                            Am   D
e|-----------------------|---0---2---|----------------------|
B|-----------------------|---1---3---|----------------------|
G|-----0----------0------|---2---2---|----0----------0------|
D|---4---2~~0---4---2~~0-|---2---0---|--4---2~~0---4---2~~0-|
A|-----------------------|-----------|----------------------|
E|-----------------------|-----------|----------------------|
                     G
e|--------------|----3-----|
B|--------------|----0-----|
G|-----0--------|----0-----|
D|---4---2~~0---|----0-----|
A|--------------|----2-----|
E|--------------|----3-----|

            
Submit corrections


        Luckenbach Texas lessons Hard to play? Try these video lessons and learn fast Luckenbach Texas lessons
        
↑ Back to top | Tablatures and chords for acoustic guitar and electric guitar, ukulele, drums are parodies/interpretations of the original songs. You may use it for private study, scholarship, research or language learning purposes only