» » »

Waylon Jennings - Amanda Solo, Corrected Tabs

Artists:  A B C D E F G H I J K L M N O P Q R S T U V W X Y Z # 

Amanda Solo, Corrected Tabs

(ver. 1) Click to play this song!
Waylon Jennings
 Rating:
4/5 (4 votes)

 Amanda Solo, Corrected lessons Tabs too difficult? Try these video lessons and learn fast
 
                e-----------------------------------------------------------
b-----------------------------------------------------------
g-----------------------------------------------------------
d-----2-2h4-2---7-4-0-2-----2-------------------------------
a-0-4---------4--0-0-0----4b--3b-0--2-4-2-0-----------------
E------------------------------------0-0-0------------------

e-----------------------------------------------------------
b-----------------------------------------------------------
g-----------------------------------------------------------
d-----2-2h4-2---5-4-0-2-------2-----------------------------
a-0-4---------4--0-0-0----0h4---3b-0--5-4-2-0---------------
E--------------------------------------0-0-0----------------
            
Submit corrections


        Amanda Solo, Corrected lessons Hard to play? Try these video lessons and learn fast Amanda Solo, Corrected lessons
        
↑ Back to top | Tablatures and chords for acoustic guitar and electric guitar, ukulele, drums are parodies/interpretations of the original songs. You may use it for private study, scholarship, research or language learning purposes only