Home » W » Waylon Jennings »

Waylon Jennings - Ain't No God In Mexico Tabs

Artists:  A B C D E F G H I J K L M N O P Q R S T U V W X Y Z # 

Ain't No God In Mexico Tabs

(ver. 1) Click to play this song!
Waylon Jennings
 Rating:
4/5 (4 votes)
                Ain't no God in Mexico
Waylon Jennings


This is one of my favorite songs... So for all of
you Waylon fans out there I hope you enjoy it as 
much as I do and lemme know what you think of the 
tab.

Intro


e------7--10b--7---7-------5--8--5---5--12b-- 
b--7h9-----------9----5h7----------7---------- 
g--------------------------------------------- 
d---------------------------------------------
a--------------------------------------------- 
e--------------------------------------------- 


e-10----10--7b--5-----5
b----12-----------7-5--
g----------------------
d----------------------
a----------------------
e----------------------
            
Submit corrections

↑ Back to top | Tablatures and chords for acoustic guitar and electric guitar, ukulele, drums are parodies/interpretations of the original songs. You may use it for private study, scholarship, research or language learning purposes only