» » »

War - Cisco Kid Tabs

Artists:  A B C D E F G H I J K L M N O P Q R S T U V W X Y Z # 

Cisco Kid Tabs

(ver. 2) Click to play this song!
War
 Rating:
4/5 (4 votes)


 Cisco Kid lessons Tabs too difficult? Try these video lessons and learn fast
 
                
 ----------------------------------------------------------|
 ----------------------------------------------------------|
 ----------------------------------------------------------|
 ----------------------------------------------------------|
 ---3-5-3-5-------------2-3-2-3----------------------------|
 --------------------------------------------1-3-1-3-------|

this is actually where the guitar starts
 --------------------|
 --------------------|
 --------------------|
 --------------------|
 --3-5-3-5-----------|
 --------------------|


 ---x----x-x----x--x--x-x-x--x---x-x-x----x-x-x----x-x-x------|
 ---x----x-x----x--x--x-x-x--x---x-x-x----x-x-x----x-x-x------|
 ---x----x-x----x--x--x-x-x--x---x-x-x----x-x-x----x-x-x------|
 -------------------------------------------------------------|
 -------------------------------------------------------------|
 -------------------------------------------------------------|

       Cisco Kid was a friend of mine
 ------1---------1---------1---------1-------4--3-1----|
 ------3---------3---------3---------3--------------3--|
 ------2---------2---------2---------2-----------------|
 ------0---------0---------0---------0-----------------|
 --0-3-------0-3-------0-3-------0-3-------------------|
 ------------------------------------------------------|
  (that's how the song goes but what the guitar is actually playing is:
 ------1-x--x-x--x-x-x----x--x-x--x-x---x----4--3-1----|
 ------2-x--x-x--x-x-x----x--x-x--x-x---x-----------3--|
 ------3-x--x-x--x-x-x----x--x-x--x-x---x--------------|
 ------------------------------------------------------|
 ------------------------------------------------------|
 ------------------------------------------------------|
 now, i don't know anything about bass guitar but these are (at least) the notes that 
it's playing during the verse
 ------------------------------------------------------|
 ------------------------------------------------------|
 ------------------------------------------------------|
 ------0----------0---------0---------0----------------|
 --0-3-------0-3-------0-3-------0-3-------------------|
 ------------------------------------------1-3-1-3-1---|



       Cisco Kid was a friend of mine
 ------1---------1---------1---------1-------4--3-1----|
 ------3---------3---------3---------3--------------3--|
 ------2---------2---------2---------2-----------------|
 ------0---------0---------0---------0-----------------|
 --0-3-------0-3-------0-3-------0-3-------------------|
 ------------------------------------------------------|

       He drink whiskey,Pancho drink the wine
 ------1---------1---------1---------1---------4--3-1----|
 ------3---------3---------3---------3----------------3--|
 ------2---------2---------2---------2-------------------|
 ------0---------0---------0---------0-------------------|
 --0-3-------0-3-------0-3-------0-3---------------------|
 --------------------------------------------------------|


       He drink whiskey,Pancho drink the wine
 ------1---------1---------1---------1---------4--3-1----|
 ------3---------3---------3---------3----------------3--|
 ------2---------2---------2---------2-------------------|
 ------0---------0---------0---------0-------------------|
 --0-3-------0-3-------0-3-------0-3---------------------|
 --------------------------------------------------------|


       They met down on the fort of Rio Grande
 ------1---------1---------1---------1---------|
 ------3---------3---------3---------3---------|
 ------2---------2---------2---------2---------|
 ------0---------0---------0---------0---------|
 --0-3-------0-3-------0-3-------0-3-----------|
 ----------------------------------------------|

       They met down on the fort of Rio Grande
 ------1---------1---------1---------1---------|
 ------3---------3---------3---------3---------|
 ------2---------2---------2---------2---------|
 ------0---------0---------0---------0---------|
 --0-3-------0-3-------0-3-------0-3-----------|
 ----------------------------------------------|

       Eat the salted peanuts out the can
 ------1---------1---------1---------1---------|
 ------3---------3---------3---------3---------|
 ------2---------2---------2---------2---------|
 ------0---------0---------0---------0---------|
 --0-3-------0-3-------0-3-------0-3-----------|
 ----------------------------------------------|

       The outlaws had us pinned down at the fort
 ------1---------1---------1---------1----------------0-1------|
 ------3---------3---------3---------3--------------3-----3----|
 ------2---------2---------2---------2-------------------------|
 ------0---------0---------0---------0-------------------------|
 --0-3-------0-3-------0-3-------0-3---------------------------|
 --------------------------------------------------------------|
                                                 (this last part isn't exactly right, 
but it's the best i could do)


       The outlaws had us pinned down at the fort
 ------1---------1---------1---------1----------------0-1------|
 ------3---------3---------3---------3--------------3-----3----|
 ------2---------2---------2---------2-------------------------|
 ------0---------0---------0---------0-------------------------|
 --0-3-------0-3-------0-3-------0-3---------------------------|
 --------------------------------------------------------------|

       Cisco came in blastin' drinkin port
 ------1---------1---------1---------1---------|
 ------3---------3---------3---------3---------|
 ------2---------2---------2---------2---------|
 ------0---------0---------0---------0---------|
 --0-3-------0-3-------0-3-------0-3-----------|
 ----------------------------------------------|

 Oh Cisco passa la boteo Hombre!

        Cisco came in blastin' drinkin port
 ------1---------1---------1---------1---------|
 ------3---------3---------3---------3---------|
 ------2---------2---------2---------2---------|
 ------0---------0---------0---------0---------|
 --0-3-------0-3-------0-3-------0-3-----------|
 ----------------------------------------------|

 --0----0----1------     --0----0----1------|
 --1----1----3------     --1----1----3------|
 --2----0----2------     --2----0----2------|
 --2----2----0------     --2----2----0------|
 --0----3-----------     --0----3-----------|
 --0----0-----------     --0----0-----------|

   They rode the sunset horse was made of steell
 ------1---------1---------1---------1----------------0-1----0-1-|
 ------3---------3---------3---------3--------------3------3-----|
 ------2---------2---------2---------2---------------------------|
 ------0---------0---------0---------0---------------------------|
 --0-3-------0-3-------0-3-------0-3-----------------------------|
 ----------------------------------------------------------------|



    They rode the sunset horse was made of steell
 ------1---------1---------1---------1----------------0-1----0-1-|
 ------3---------3---------3---------3--------------3------3-----|
 ------2---------2---------2---------2---------------------------|
 ------0---------0---------0---------0---------------------------|
 --0-3-------0-3-------0-3-------0-3-----------------------------|
 ----------------------------------------------------------------|

       Chased the gringo  ?   through the field
 ------1---------1---------1---------1----------------0-1----0-1-|
 ------3---------3---------3---------3--------------3------3-----|
 ------2---------2---------2---------2---------------------------|
 ------0---------0---------0---------0---------------------------|
 --0-3-------0-3-------0-3-------0-3-----------------------------|
 ----------------------------------------------------------------|

       Chased the gringo  ?   through the field
 ------1---------1---------1---------1----------------0-1----0-1-|
 ------3---------3---------3---------3--------------3------3-----|
 ------2---------2---------2---------2---------------------------|
 ------0---------0---------0---------0---------------------------|
 --0-3-------0-3-------0-3-------0-3-----------------------------|
 ----------------------------------------------------------------|

  --0----0----1------    --0----0----1------|
 --1----1----3------     --1----1----3------|
 --2----0----2------     --2----0----2------|
 --2----2----0------     --2----2----0------|
 --0----3-----------     --0----3-----------|
 --0----0-----------     --0----0-----------|

       Cisco Kid was a friend of mine
 ------1---------1---------1---------1-------4--3-1----|
 ------3---------3---------3---------3--------------3--|
 ------2---------2---------2---------2-----------------|
 ------0---------0---------0---------0-----------------|
 --0-3-------0-3-------0-3-------0-3-------------------|
 ------------------------------------------------------|


       Cisco Kid was a friend of mine
 ------1---------1---------1---------1-------4--3-1----|
 ------3---------3---------3---------3--------------3--|
 ------2---------2---------2---------2-----------------|
 ------0---------0---------0---------0-----------------|
 --0-3-------0-3-------0-3-------0-3-------------------|
 ------------------------------------------------------|

----------------------------------------------------| Hoo! Hoo! Hoo! Hoo! Hoo-oo-oo-oo-oo-oo-oo
 --1------0------0------0------1--1--1--1--1--1--1--|
 --3------1------1------1------3--3--3--3--3--3--3--|
 --2------2------0------2------2--2--2--2--2--2--2--|
 --0------2------2------2------0--0--0--0--0--0--0--|
 ---------0------3------0---------------------------|
 ---------0------0------0---------------------------|

   oo oo oo oo oo  oo  oo
 --0--0--0--0--0---0---1-------1---------1---|
 --1--1--1--1--1---1---3-------3---------3---|
 --0--0--0--0--0---2---2-------2---------2---|
 --2--2--2--2--2---2---0-------0---------0---|
 --3--3--3--3--3---0-------0-3-------0-3-----|
 --0--0--0--0--0---0-------------------------|


----------------------------------------------------| Hoo! Hoo! Hoo! Hoo!   Hoo-oo-oo-oo-oo-oo-oo
 --1------0------0------0------1--1--1--1--1--1--1--|
 --3------1------1------1------3--3--3--3--3--3--3--|
 --2------2------0------2------2--2--2--2--2--2--2--|
 --0------2------2------2------0--0--0--0--0--0--0--|
 ---------0------3------0---------------------------|
 ---------0------0------0---------------------------|

   oo oo oo oo oo  oo  oo
 --0--0--0--0--0---0---1-------1---------1---|
 --1--1--1--1--1---1---3-------3---------3---|
 --0--0--0--0--0---2---2-------2---------2---|
 --2--2--2--2--2---2---0-------0---------0---|
 --3--3--3--3--3---0-------0-3-------0-3-----|
 --0--0--0--0--0---0-------------------------|


       Cisco Kid was a friend of mine
 ------1---------1---------1---------1-------4--3-1----|
 ------3---------3---------3---------3--------------3--|
 ------2---------2---------2---------2-----------------|
 ------0---------0---------0---------0-----------------|
 --0-3-------0-3-------0-3-------0-3-------------------|
 ------------------------------------------------------|

well that's my version
peace
love
and WAR
            
Submit corrections



        Cisco Kid lessons Hard to play? Try these video lessons and learn fast Cisco Kid lessons
        
↑ Back to top | Tablatures and chords for acoustic guitar and electric guitar, ukulele, drums are parodies/interpretations of the original songs. You may use it for private study, scholarship, research or language learning purposes only