» » »

Vines - Ride Tabs

Artists:  A B C D E F G H I J K L M N O P Q R S T U V W X Y Z # 

Ride Tabs

(ver. 1) Click to play this song!
Vines
 Rating:
4/5 (4 votes)

 Ride lessons Tabs too difficult? Try these video lessons and learn fast
 
                key:                       |
x = rake                   |
h = hammer on              |
p = pull off               |
! = shake guitar           |
v = bend up                |
guitar 1 = craig nichols   |

thing. Lots of people that know me say i've got this talent of figuring hearing if
a tab sounds wrong, lots of tabs submited for ride were wrong. I fixed those
little 'glitches' and tabbed my own version... Any comments or even songs you would
Have fun jammin!

INTRO and VERSE 1

guitar 1:
e|--------------------------------------------------|
B|--------------------------------------------------|
G|--6--6--x--x--6--6--x--x--6--6-----9-----11-11----|
D|--6--6--x--x--6--6--x--x--6--6--0--9--0--11-11-0--|
A|--4--4--x--x--4--4--x--x--4--4--0--7--0--9--9--0--|
E|--x--x--x--x--x--x--x--x--x--x-----x-----x--x-----|
						     \ 4x for intro
guitar 2:					     / 4x for verse 1
e|--------------------------------------------------|
B|--6--6--------6--6--------6--6-----9-----11-11----|
G|--6--6--x--x--6--6--x--x--6--6-----9-----11-11-x--|
D|--6--6--x--x--6--6--x--x--6--6--0--9--0--11-11-x--|
A|--4--4--x--x--4--4--x--x--4--4--0--7--0--9--9--x--|
E|--x--x--x--x--x--x--x--x--x--x--0--x--0--x--x--x--|

CHORUS

both guitars:
e|-------------------------|
B|-------------------------|
G|--6--6--6-------------0--|
D|--6--6--6--7----7--7--0--|
A|--4--4--4--7----7--7--0--|
E|-----------5----5--5-----|

3x (above) then 1x (under), repeat the whole 2x

e|-------------------------|
B|-------------------------|
G|----------------------0--|
D|--2--2--2--4----4--4--0--|
A|--2--2--2--4----4--4--0--|
E|--0--0--0--2----2--2-----|

POST CHORUS

guitar 1:
e|-------------------------------------------------|
B|-------------------------------------------------|
G|--6--6--------6--6--------6--6----------------0--|
D|--6--6--5--5--6--6--5--5--6--6--5--2----4--4--0--|
A|--4--4--5--5--4--4--5--5--4--4--5--2----4--4--0--|
E|--------3--3--------3--3--------3--0----2--2-----|
						    \ 4x
guitar 2:					    /
e|-------------------------------------------------|
B|-------------------------------------------------|
G|--6--6--------6--6--------6--6-------------------|
D|--6--6--5--5--6--6--5--5--6--6--5----------------|
A|--4--4--------4--4--------4--4-------------------|
E|-----------------------------------0----2h3p2----|

VERSE 2

guitar 1:
e|--------------------------------------------------|
B|--------------------------------------------------|
G|--6--6--x--x--6--6--x--x--6--6-----9-----11-11----|
D|--6--6--x--x--6--6--x--x--6--6--0--9--0--11-11-0--|
A|--4--4--x--x--4--4--x--x--4--4--0--7--0--9--9--0--|
E|--x--x--x--x--x--x--x--x--x--x-----x-----x--x-----|
						     \ 4x for verse 2
guitar 2:					     /
e|--------------------------------------------------|
B|--6--6--x--x--6--6--x--x--6--6-----9-----11-11-x--|
G|--6--6--x--x--6--6--x--x--6--6-----9-----11-11-x--|
D|--6--6--x--x--6--6--x--x--6--6--0--9--0--11-11-x--|
A|--4--4--x--x--4--4--x--x--4--4--0--7--0--9--9--x--|
E|--x--x--x--x--x--x--x--x--x--x--0--x--0--x--x--x--|

CHORUS

both guitars:
e|-------------------------|
B|-------------------------|
G|--6--6--6-------------0--|
D|--6--6--6--7----7--7--0--|
A|--4--4--4--7----7--7--0--|
E|-----------5----5--5-----|

3x (above) then 1x (under), repeat the whole 2x

e|-------------------------|
B|-------------------------|
G|-------------------------|
D|--2--2--2--4----4--4--0--|
A|--2--2--2--4----4--4--0--|
E|--0--0--0--2----2--2--0--|

INTERLUDE

guitar 1:
e|--------------------------------------------------|
B|--------------------------------------------------|
G|--------676---------454---------343---------343---|
D|-----------7-----------5-----------4-----------4--|
A|--------------------------------------------------|
E|--------------------------------------------------|
						     \ 2x
guitar 2:					     /
e|--------------------------------------------------|
B|--------------------------------------------------|
G|--------------------------------------------------|
D|--7--7--7--7--5--5--5--5--4--4--4--4--4--4--4--4--|
A|--7--7--7--7--5--5--5--5--4--4--4--4--4--4--4--4--|
E|--5--5--5--5--3--3--3--3--2--2--2--2--2--2--2--2--|

then both guitars:
e|--------------------------------------------------|
B|--------------------------------------------------|
G|--------------------------------------------------| end of interlude
D|--------------------------4--4--4--4--4--4--4--4--|
A|--4--4--4--4--4--4--4--4--4--4--4--4--4--4--4--4--|
E|--2--2--2--2--2--2--2--2--2--2--2--2--2--2--2--2--|

SOLO

e|-------------------------------------------------|
B|-------------------------------------------!!!!--|
G|--6--6--6--6--6--6--6--6--9--9--9--9--999-9------|
D|--v--v--v--v--v--v--v--v--v--v--v--v-------------|
A|-------------------------------------------------|
E|-------------------------------------------------|

e|--------------------------(nine-teen's and twenty-one's)----|
B|--------------------------21212121212121212121212121212121--|
G|--12-12-12-12-12-12-12-12-19191919191919191919191919191919--|
D|---v--v--v--v--v--v--v--v-----------------------------------|
A|------------------------------------------------------------|
E|------------------------------------------------------------|

INTRO RIFF

guitar 1:
e|--------------------------------------------------|
B|--------------------------------------------------|
G|--6--6--x--x--6--6--x--x--6--6-----9-----11-11----|
D|--6--6--x--x--6--6--x--x--6--6--0--9--0--11-11-0--|
A|--4--4--x--x--4--4--x--x--4--4--0--7--0--9--9--0--|
E|--x--x--x--x--x--x--x--x--x--x-----x-----x--x-----|
						     \ 4x
guitar 2:					     /
e|--------------------------------------------------|
B|--6--6--------6--6--------6--6-----9-----11-11----|
G|--6--6--x--x--6--6--x--x--6--6-----9-----11-11-x--|
D|--6--6--x--x--6--6--x--x--6--6--0--9--0--11-11-x--|
A|--4--4--x--x--4--4--x--x--4--4--0--7--0--9--9--x--|
E|--x--x--x--x--x--x--x--x--x--x--0--x--0--x--x--x--|

CHORUS

both guitars:
e|-------------------------|
B|-------------------------|
G|--6--6--6-------------0--|
D|--6--6--6--7----7--7--0--|
A|--4--4--4--7----7--7--0--|
E|-----------5----5--5-----|

3x (above) then 1x (under), repeat the whole 2x

e|-------------------------|
B|-------------------------|
G|-------------------------|
D|--2--2--2--4----4--4--0--|
A|--2--2--2--4----4--4--0--|
E|--0--0--0--2----2--2--0--|

OUTRO

both guitars:
e|--------------|
B|--------------|
G|--6--6--x--x--|
D|--6--6--x--x--|
A|--4--4--x--x--|
E|--x--x--x--x--|
            
Submit corrections


        Ride lessons Hard to play? Try these video lessons and learn fast Ride lessons
        
↑ Back to top | Tablatures and chords for acoustic guitar and electric guitar, ukulele, drums are parodies/interpretations of the original songs. You may use it for private study, scholarship, research or language learning purposes only