» » »

Vines - Psychomatic Tabs

Artists:  A B C D E F G H I J K L M N O P Q R S T U V W X Y Z # 

Psychomatic Tabs

(ver. 1) Click to play this song!
Vines
 Rating:
4/5 (4 votes)

 Psychomatic  lessons Tabs too difficult? Try these video lessons and learn fast
 
                Intro: (x2)

e|--------------------------------------------------------------------------------------|
B|--------------------------------------------------------------------------------------|
G|--------------------------------------------------------------------------------------|
D|-4-4--2-2--5-5--7---4-4-4--2-2--5-5--7---4-4-4--2-2--5-5--7---4-4-4--2-2--5-5--7------|
A|-4-4--2-2--5-5--7---4-4-4--2-2--5-5--7---4-4-4--2-2--5-5--7---4-4-4--2-2--5-5--7------|
E|-2-2--0-0--7-7--9---2-2-2--0-0--7-7--9---2-2-2--0-0--7-7--9---2-2-2--0-0--7-7--9------|

Verse: (x2)

e|--------------------------------------------------------------------------------------|
B|--------------------------------------------------------------------------------------|
G|--------------------------------------------------------------------------------------|
D|-4-4--2-2--5-5--7---4-4-4--2-2--5-5--7---4-4-4--2-2--5-5--7---4-4-4--2-2--5-5--7------|
A|-4-4--2-2--5-5--7---4-4-4--2-2--5-5--7---4-4-4--2-2--5-5--7---4-4-4--2-2--5-5--7------|
E|-2-2--0-0--7-7--9---2-2-2--0-0--7-7--9---2-2-2--0-0--7-7--9---2-2-2--0-0--7-7--9------|
  (----------------------------------------PM-------------------------------------)

Chorus (Intro (x2))

Intro

Verse (x2)

Chorus (Intro (x2))

Intro (x2)

Bridge

e|------------------------------------------------------------------------------------------------|
B|------------------------------------------------------------------------------------------------|
G|-7-7-7-7-7-7------------------------------------------7-7-7-7-7-7-------------------------------|
D|-7-7-7-7-7-7--7-7-7-7-7-7--9-9-9-9-9-9--4-4-4-4-4-4---7-7-7-7-7-7--7-7-7-7-7-7--9-9-9-9-9-9-----|
A|-5-5-5-5-5-5--7-7-7-7-7-7--9-9-9-9-9-9--4-4-4-4-4-4---5-5-5-5-5-5--7-7-7-7-7-7--9-9-9-9-9-9-----|
E|--------------5-5-5-5-5-5--7-7-7-7-7-7--2-2-2-2-2-2----------------5-5-5-5-5-5--7-7-7-7-7-7-----|

Verse (x3)

Outro

e|---------|
B|---------|
G|---------|
D|-4-------|
A|-4-------|
E|-2-------|            
Submit corrections


        Psychomatic  lessons Hard to play? Try these video lessons and learn fast Psychomatic  lessons
        
↑ Back to top | Tablatures and chords for acoustic guitar and electric guitar, ukulele, drums are parodies/interpretations of the original songs. You may use it for private study, scholarship, research or language learning purposes only