» » »

Vines - Paint It Black Bass

Artists:  A B C D E F G H I J K L M N O P Q R S T U V W X Y Z # 

Paint It Black Bass

(ver. 1) Click to play this song!
Vines
 Rating:
4/5 (4 votes)

 Paint It Black lessons Tabs too difficult? Try these video lessons and learn fast
 
                +++++++++++++++++++++++++++++
| The Vines- Paint It Black | 
+++++++++++++++++++++++++++++


"I could not foresee this thing happening to you..."

Tuning: Half A Step Down (EbADG)


Intro
1.
G||-------------------|
D||-------------------|
A||-------------------|
Eb|-0~----------------|

Verse
"I see your red door..."
2.
G||-------------------------------------------------------------------------|
D||--------------------------------3333-------------------------------------|
A||-------------------11111111-1111-----------------------11111111-11111111-|
Eb|-00000000-00000000-------------------00000000-00000000-------------------|

Chorus
"I see the girls walk by..."
3.
G||------------------------------------------------------------------|
D||------------------------------------------------------------------|
A||---6-44----44--------------------6-6-4-4----44--------------------|
Eb|-0------33----0-0000000-00000000---------33----5-5555555-77777777-|

Verse
"I see a line of cars..."
4.
G||-------------------------------------------------------------------------|
D||--------------------------------3333-------------------------------------|
A||-------------------11111111-1111-----------------------11111111-11111111-|
Eb|-00000000-00000000-------------------00000000-00000000-------------------|

Chorus
"I seem people turn their heads..."
5.
G||------------------------------------------------------------------|
D||------------------------------------------------------------------|
A||---6-44----44--------------------6-6-4-4----44--------------------|
Eb|-0------33----0-0000000-00000000---------33----5-5555555-77777777-|

Verse
"I look inside myself..."
6.
G||-------------------------------------------------------------------------|
D||--------------------------------3333-------------------------------------|
A||-------------------11111111-1111-----------------------11111111-11111111-|
Eb|-00000000-00000000-------------------00000000-00000000-------------------|

Chorus
"Mid day I'll fade away..."
7.
G||------------------------------------------------------------------|
D||------------------------------------------------------------------|
A||---6-44----44--------------------6-6-4-4----44--------------------|
Eb|-0------33----0-0000000-00000000---------33----5-5555555-77777777-|

Verse
"No more will my dreams' eagle..."  
8.
G||-----------------------------------------------------------------------|
D||-----------------------------------------------------------------------|
A||------------------1~----------------------------------1~---------------|
Eb|-0~---------------------------------0~---------------------------------|

Chorus
"If I look hard enough..." 
9.
G||------------------------------------------------------------------|
D||------------------------------------------------------------------|
A||---6-44----44--------------------6-6-4-4----44--------------------|
Eb|-0------33----0-0000000-00000000---------33----5-5555555-77777777-|

Verse
"I see my red door..."
10.
G||-------------------------------------------------------------------------|
D||--------------------------------3333-------------------------------------|
A||-------------------11111111-1111-----------------------11111111-11111111-|
Eb|-00000000-00000000-------------------00000000-00000000-------------------|

Chorus
"I see the girls walk by..."
11.
G||------------------------------------------------------------------|
D||------------------------------------------------------------------|
A||---6-44----44--------------------6-6-4-4----44--------------------|
Eb|-0------33----0-0000000-00000000---------33----5-5555555-77777777-|

Bridge
12.
G||--------------------------------------------------------|
D||--------------------------------------------------------|
A||----------------------------1x--1111x--1111x--111111111-|--x3
Eb|-0x--0000x--0000x--000000000----------------------------|

13.
G||--------------------------------------------------------|
D||--------------------------------------------------------|
A||----------------------------1x--1111x--1111x------------|
Eb|-0x--0000x--0000x--000000000----------------------------|

Outro
"I wanna see it painted black..."
14.
G||-------------------------------------------------------------------------|
D||--------------------------------------------------------------------3434-|
A||-------------------11111111-11111111-------------------11111111-1111-----|
Eb|-00000000-00000000-------------------00000000-00000000-------------------|

"I wanna see it painted, painted, painted..."
15.
G||-------------------------------------------------------------------------|
D||-------------------------------------------------------------------------|
A||-------------------11111111-11111111-------------------11111111-11111111-|
Eb|-00000000-00000000-------------------00000000-00000000-------------------|

16.
G||-------------------------------------------------------------------------|
D||-------------------------------------------------------------------------|
A||-------------------11111111-11111111-------------------11111111-11111111-|
Eb|-00000000-00000000-------------------00000000-00000000-------------------|

17.
G||-------------------------------------|
D||-------------------------------------|
A||-------------------11111111-11111111-|
Eb|-00000000-00000000-------------------|

18.
G||-----------|
D||-----------|
A||-----------|
Eb|-0x--0000x-|


Lyrics:


I see your red door and I want to paint it black
No colors anymore I want them to turn black
I see the girls walk by dressed in their summer clothes
I have to turn my head until my darkness goes

I see a line of cars and they're all painted black
With flowers and my love, both never to come back
I see people turn their heads and quickly look away
Never see the sight of me that changes every day

I look inside myself and see my heart is black
I see my red door and it has been painted black

No more will my dream's eagle turn a deeper blue
I could not foresee this thing happening to you
If I look hard enough into the setting sun
My love will laugh with me before the morning comes
I look inside myself and see my heart is black
I see my red door and it has been painted black

Paint it, paint it, paint it, paint it black
Paint it, paint it, paint it, paint it black as night,
black as tar
Wanna see the sun blotted outside
Paint it black



+++++++++++++++++++++++++++++++++
| RaiLeff                       |
+++++++++++++++++++++++++++++++++
            
Submit corrections


        Paint It Black lessons Hard to play? Try these video lessons and learn fast Paint It Black lessons
        
↑ Back to top | Tablatures and chords for acoustic guitar and electric guitar, ukulele, drums are parodies/interpretations of the original songs. You may use it for private study, scholarship, research or language learning purposes only