» » »

Vines - Paint It Black Tabs

Artists:  A B C D E F G H I J K L M N O P Q R S T U V W X Y Z # 

Paint It Black Tabs

(ver. 1) Click to play this song!
Vines
 Rating:
4/5 (4 votes)

 Paint It Black lessons Tabs too difficult? Try these video lessons and learn fast
 
                
This song was originally by 'The Rolling Stones'. The vines cover
it in 1999 and it is recorded on their first EP 'Factory'. Although
the song is much simular to the original, The Vines have made the 
song much heavier to fit it in with their style.


~ = Let Ring
/ = Slide Up
U = Upstroke
D = Downstroke
h = hammer On
p = Pull off


Standard Tunning (EADGBE)


INTRO:

Guitar 1                                         
E------------------|----------------------|-------------------|
B---5---7----8-----|-10----8-----7----5---|--5----4-----5---7-|
G------------------|----------------------|-------------------|  
D------------------|----------------------|-------------------|  
A------------------|----------------------|-------------------|   
E------------------|----------------------|-------------------|

E------------------|
B-2-4-5----5-4-2-4-|                  * This Intro Riff can be
G------------------|                    Played on one Guitar,
D------------------|                    by joining the two parts
A------------------|   
E------------------|                                              
                                                                   
Guitar 2                                                           
E-----0----0----0--|-----0----0-----0---0-|-----0----0----0---|       
B------------------|----------------------|-------------------|     
G------------------|----------------------|-------------------|   
D------------------|----------------------|-------------------| 
A------------------|----------------------|-------------------|
E------------------|----------------------|-------------------|
                   
E-------2~---------|------------------|
B------------------|------------------|
G------------------|------------------|
D------------------|---------------2~-|
A------------------|--(Pickslide)--2~-|
E------------------|---------------0~-|


VERSE 1:

  D U D U D U D U 
E-----------------|
B-----------------|   x8
G-----------------|
D-2-2-2-2-2-2-2-2-|
A-2-2-2-2-2-2-2-2-|
E-0-0-0-0-0-0-0-0-|
       
             
CHORUS:

E-----------------------------|-------------------------|
B-----------------------------|-------------------------|
G--8-8/6-66-6-6---------------|-8-8-6-6-----------------|
D--8-8/6-66-6-6-6-8-8-8-8-8-8-|-8-8-6-6-6-66-6-88-8-8-8-|
A--6-6/4-44-4-4-6-8-8-8-8-8-8-|-6-6-4-4-6-66-6-88-8-8-8-|
E---------------4-6-6-6-6-6-6-|---------4-44-4-66-6-6-6-|


VERSE 2

E------------------|----------------------|-------------------|
B---5---7----8-----|-10----8-----7----5---|--5h75--4----5---7-|
G------------------|----------------------|-------------------|
D------------------|----------------------|-------------------|
A------------------|----------------------|-------------------|
E------------------|----------------------|-------------------|

E------------------|------------------|----------------------|
B--5--4h5p4p2h4----|---5---7----8-----|-10----8-----7----5---|
G------------------|------------------|----------------------|
D------------------|------------------|----------------------|
A------------------|------------------|----------------------|
E------------------|------------------|----------------------|

E-------------------|
B--5----4-----5---7-|
G-------------------|
D-------------------|
A-------------------|
E-------------------|


BRIDGE

  D DUDU DUDU DUDUDUDU
E----------------------|
B----------------------|   x7
G----------------------|
D-2-2222-2222-22222222-|
A-2-2222-2222-22222222-|
E-0-0000-0000-00000000-|

  D DUDU 
E--------|
B--------|   
G--------|
D-2-2222-|
A-2-2222-|
E-0-0000-|


OUTRO

Guitar 1
E--------------------------|------------------------------|
B-5--7---8----10--8---7--5-|--5h75--4--5-7-2-4-5--5-4-2-4-|   x7
G--------------------------|------------------------------|
D--------------------------|------------------------------|
A--------------------------|------------------------------|
E--------------------------|------------------------------|

Guitar 2
E-------------------|
B-------------------|   x14 
G-------------------|  
D-2-2-2-2-2-2-2-2-2-|
A-2-2-2-2-2-2-2-2-2-|
E-0-0-0-0-0-0-0-0-0-|

E--------|
B--------|   
G--------|  
D-2-2222-|
A-2-2222-|
E-0-0000-|


PLAYING ORDER:

-INTRO
-VERSE 1
-CHORUS
-VERSE 1
-CHORUS
-VERSE 1
-CHORUS
-VERSE 2
-CHORUS
-VERSE 1
-CHORUS
-BRIDGE
-OUTRO
            
Submit corrections


        Paint It Black lessons Hard to play? Try these video lessons and learn fast Paint It Black lessons
        
↑ Back to top | Tablatures and chords for acoustic guitar and electric guitar, ukulele, drums are parodies/interpretations of the original songs. You may use it for private study, scholarship, research or language learning purposes only