» » »

Vines - Outtatheway Tabs

Artists:  A B C D E F G H I J K L M N O P Q R S T U V W X Y Z # 

Outtatheway Tabs

(ver. 1) Click to play this song!
Vines
 Rating:
4/5 (4 votes)

 Outtatheway lessons Tabs too difficult? Try these video lessons and learn fast
 
                "Outtathaway" by The Vines
Highly Evolved 

x=scratch
/=slide

Standard Tuning (E,A,D,G,B,E)


Intro-just get a lot of feed back and scratch a little and do a couple of slides, hit some open strings

Verse1                                  Verse2                                    
e|-------------------------------------|-------------------------------------|
B|-------------------------------------|------------------------------3-3-3--|
G|-------x-x-x------x--------x-x-5-5-5-|------x-x-x------x--------x-x-3-3-3--|
D|--7--7-x-x-x--5-5-x-7--7-7-x-x-5-5-5-|-5--5-x-x-x--3-3-x-5--5-5-x-x-3-3-3--|
A|--7--7-x-x-x--5-5-x-7--7-7-x-x-3-3-3-|-5--5-x-x-x--3-3-x-5--5-5-x-x-1-1-1--|
E|--5--5-x-x-x--3-3-x-5--5-5-x-x-------|-3--3-x-x-x--1-1-x-3--3-3-x-x--------|
   "I get.."

Chorus
e|--------------------------------------------------------|
B|----------------5-5-5--------4-4-4-4-4-4--7-7-7-5-5-5---|
G|----------------5-5-5--------4-4-4-4-4-4--7-7-7-5-5-5---|
D|-7-7-7-7-7-7-7--5-5-5-5-5-5--4-4-4-4-4-4--7-7-7-5-5-5---|
A|-7-7-7-7-7-7-7--3-3-3-5-5-5--2-2-2-2-2-2--5-5-5-3-3-3---|
E|-5-5-5-5-5-5-5--------3-3-3-----------------------------|
  "gotta get outta tha way..."

Solo
e|-------------------------------------------------------------------
B|-------------------------------------------------------------------
G|-------------------------------------------------------------------
D|----6/7-5-----------------------6/7-5----------------------5/7--5-
A|----------7-5/3-3-0-3-5-5/7----------7-5--3-3-0-3-5-5/7-----------
E|-5----------------------------5--------------------------3--------

e|-------------------------------------------------------------------
B|-------------------------------------------------------------------
G|----------------------------------------------------7-5-----------5
D|-----------------------6/7-5---------------------------7-5---5h7---
A|-7-5/3-3-0-3-5-5/7-----------7-5--3-3-0-3-5-5/7------------7-------
E|--------------------5----------------------------5-----------------

e|-------------------------------------------------------------------
B|-------------------------------------------------------------------
G|----------7-5-7-5-7/9-9--7b-5-------9-8-7-9-8-7-9-8-7-9-8-7-9-8-7--
D|-7-5---------------------------7-5---------------------------------
A|-----7-------------------------------------------------------------
E|-------5-----------------------------------------------------------

e|----------------------------------------------------
B|----------------------------------------------------
G|-5--------------------------------------------------
D|---7-5----------------------------------------------
A|-------7-5/3-3-3-0-3-5/7----------------------------
E|-------------------------5~~~-----------------------


OUTRO
e|--------------------------------------------------------------------
B|--------------------------------------------------------------------
G|------x-x-x-----x-x-------------------------------------------------
D|-7--7-x-x-x-5-5-x-x-7~----------------------------------------------
A|-7--7-x-x-x-5-5-x-x-7~----------------------------------------------
E|-5--5-x-x-x-3-3-x-x-5~----------------------------------------------
            
Submit corrections


        Outtatheway lessons Hard to play? Try these video lessons and learn fast Outtatheway lessons
        
↑ Back to top | Tablatures and chords for acoustic guitar and electric guitar, ukulele, drums are parodies/interpretations of the original songs. You may use it for private study, scholarship, research or language learning purposes only