» » »

Vines - Outatheway Tabs

Artists:  A B C D E F G H I J K L M N O P Q R S T U V W X Y Z # 

Outatheway Tabs

(ver. 2) Click to play this song!
Vines
 Rating:
4/5 (4 votes)

 Outatheway lessons Tabs too difficult? Try these video lessons and learn fast
 
                Key 

  A   G   C   F   B#   D    B

e--5---3---8---1---7---10---6
B--5---3---8---1---7---11---6
G--6---3---9---2---8---12---7
D--7---5--10---3---9---12---8
A--7---5--10---3---9---10---8
E--5---3---8---1---7---10---6


Intro - Feedback than 

A A GG A A CCCC x4

VERSE- 

A A GG A A CCCC A A GG A A CCCC G G FF G G BBBB A A GG A A CCCC

CHORUS-

AAAAAAAA CCC G GG B#B#B#B#B#B#B#B# DDD CCC

SOLO-

e----------------------------------------------------------------------
B----------------------------------------------------------------------
G----------------------------------------------------------------------
D--->7-5--------------------->7-5----------------------->7-5-----------
A-------7-6h7p6-5-6-5--5-6-5-----7-6h7p6-5-6-5--5-6-5--------7-6h7p6---
E-5------------------8-------5----------------8-------3----------------

e----------------------------------------------------------------------
B----------------------------------------------------------------------
G------------------------------------------7-5---5---------5-----------
D---------------->7-5--------------------------7-5-5-6-7-5---7-5-7-5---
A-5-6-5---5-6-5------7-6h7p6-5-6-5-5-6-5-------------------------------
E-------8-------5-----------------8------5---------------------------5-

e----------------------------------------------------------------------
B--------5-------------------------------------------------------------
G-7-5-7-7^--987-987-987-987-987-5--------------------------------------
D--------------------------------7-7-5---------------------------------
A--------------------------------------7-6h7p6-5-6-5---5-6-7-----------
E----------------------------------------------------8-------5---------


Intro

Verse

Chorus

Verse x2

Chorus

Solo

Chorus x3

Im pretty sure this is almost perfect so tell me what you think
            
Submit corrections


        Outatheway lessons Hard to play? Try these video lessons and learn fast Outatheway lessons
        
↑ Back to top | Tablatures and chords for acoustic guitar and electric guitar, ukulele, drums are parodies/interpretations of the original songs. You may use it for private study, scholarship, research or language learning purposes only