» » »

Vines - Ms Jackson Tabs

Artists:  A B C D E F G H I J K L M N O P Q R S T U V W X Y Z # 

Ms Jackson Tabs

(ver. 2) Click to play this song!
Vines
 Rating:
4/5 (4 votes)

 Ms Jackson lessons Tabs too difficult? Try these video lessons and learn fast
 
                Miss Jackson (Studio Version)

Guitar 1 (acoustic):
e|--3-33-3-3-33-3-33-3-3-3-55-5-5-3-33-3-3-33-3-3-5-55-5-5-55-5-5--|
B|--1-11-1-1-11-1-11-1-1-1-33-3-3-0-00-0-0-00-0-0-3-33-3-3-33-3-3--|
G|--0-00-0-0-00-0-00-0-0-0-00-0-0-0-00-0-0-00-0-0-0-00-0-0-00-0-0--|
D|--2-22-2-2-22-2-22-2-2-2-44-4-4-2-22-2-2-22-2-2-4-44-4-4-44-4-4--|
A|--3-33-3-3-33-3-33-3-3-3-55-5-5-2-22-2-2-22-2-2-5-55-5-5-55-5-5--|
E|--------------------------------0-00-0-0-00-0-0------------------|

I'm not sure if guitar 2 is right....
It plays behind Guitar 1 and has a phlanger or something....
It is hard to hear what is played....

Guitar 2 (with phlanger):
e|-----------------------------------------------------------------|
B|----------------------------------------------------------------|
G|--5-55-5-5-55-5-55-5-5-5-77-7-7-9-99-9-9-99-9-9-7-77-7-7-77-7-7--|
D|--x-xx-x-x-xx-x-xx-x-x-x-xx-x-x-x-xx-x-x-xx-x-x-x-xx-x-x-xx-x-x--|
A|--3-33-3-3-33-3-33-3-3-3-55-5-5-7-77-7-7-77-7-7-5-55-5-5-55-5-5--|
E|-----------------------------------------------------------------|

Well,that's it....easy song....fun to play....
It just repeats over and over....
            
Submit corrections


        Ms Jackson lessons Hard to play? Try these video lessons and learn fast Ms Jackson lessons
        
↑ Back to top | Tablatures and chords for acoustic guitar and electric guitar, ukulele, drums are parodies/interpretations of the original songs. You may use it for private study, scholarship, research or language learning purposes only