» » »

Vines - Metal Zone Tabs

Artists:  A B C D E F G H I J K L M N O P Q R S T U V W X Y Z # 

Metal Zone Tabs

(ver. 1) Click to play this song!
Vines
 Rating:
4/5 (4 votes)

 Metal Zone  lessons Tabs too difficult? Try these video lessons and learn fast
 
                Intro:
(distortion)
E--------------------------------
B--------------------------------
G--------------------------------
D-----10-8---5br------8-6---3br--  x3
A-10----------------8------------
E--------------------------------

E----------------------
B----------------------
G----------------------
D-----10-8---5br-------
A-10----------------8--
E----------------------

(clean)
E-----------------------------
B-----------------------------
G-----------------------------
D-5-5-5-5-5-0-8-3-3-3-3-3-0-8- x2
A-5-5-5-5-5-0-8-3-3-3-3-3-0-8-
E-3-3-3-3-3-0-6-1-1-1-1-1-0-6-
    ^ first beat  ^first beat

(distortion)
E-----------------------------
B-----------------------------
G-----------------------------
D-5-5-5-5-5-0-8-3-3-3-3-3-0-8- x2
A-5-5-5-5-5-0-8-3-3-3-3-3-0-8-
E-3-3-3-3-3-0-6-1-1-1-1-1-0-6-
    ^ first beat  ^first beat


Verse:
(clean)
E-----------------------------
B-----------------------------
G-----------------------------
D-5-5-5-5-5-0-8-3-3-3-3-3-0-8- x4
A-5-5-5-5-5-0-8-3-3-3-3-3-0-8-
E-3-3-3-3-3-0-6-1-1-1-1-1-0-6-
    ^ first beat  ^first beat

Chorus:
(distortion)
E----------------------------
B----------------------------
G----------------------------
D-5-5-5-5-5-0-8-3-3-3-3-3-0-8- x4
A-5-5-5-5-5-0-8-3-3-3-3-3-0-8-
E-3-3-3-3-3-0-6-1-1-1-1-1-0-6-
    ^ first beat  ^first beat

Verse:
(clean)
E-----------------------------
B-----------------------------
G-----------------------------
D-5-5-5-5-5-0-8-3-3-3-3-3-0-8- x4
A-5-5-5-5-5-0-8-3-3-3-3-3-0-8-
E-3-3-3-3-3-0-6-1-1-1-1-1-0-6-
    ^ first beat  ^first beat

Chorus:
(distortion)
E-----------------------------
B-----------------------------
G-----------------------------
D-5-5-5-5-5-0-8-3-3-3-3-3-0-8- x8
A-5-5-5-5-5-0-8-3-3-3-3-3-0-8-
E-3-3-3-3-3-0-6-1-1-1-1-1-0-6-
    ^ first beat  ^first beat

Solo:
(distortion)
E---------------------------------------
B---------------------------------------
G---------------------------------------
D-------------8h10p8-5----------6h8p6-3- x4
A-10--10-10-------------8--8-8----------
E---------------------------------------

End:
(clean)
E-----------------------------
B-----------------------------
G-----------------------------
D-5--5-5--3-5-6-3--3-3--3-3-3- x4
A-5--5-5--3-5-6-3--3-3--3-3-3-
E-3--3-3--1-3-4-1--1-1--1-1-1-            
Submit corrections


        Metal Zone  lessons Hard to play? Try these video lessons and learn fast Metal Zone  lessons
        
↑ Back to top | Tablatures and chords for acoustic guitar and electric guitar, ukulele, drums are parodies/interpretations of the original songs. You may use it for private study, scholarship, research or language learning purposes only