» » »

Vines - Killin The Planet Tabs

Artists:  A B C D E F G H I J K L M N O P Q R S T U V W X Y Z # 

Killin The Planet Tabs

(ver. 1) Click to play this song!
Vines
 Rating:
4/5 (4 votes)

 Killin The Planet  lessons Tabs too difficult? Try these video lessons and learn fast
 
                Intro:
E------------------|
B------------------|
G----------------5-|
D-7-7-7-7-7-7----5-|
A-7-7-7-7-7-7-5h7--| x4
E-5-5-5-5-5-5------|


Verse 1:
E-----------------------------------------------------------------|
B-----------------------------------------------------------------|
G-----------------------------------------------------------------|
D-7-7-7-7-7-7-7-7-7-7-7-7-7-7-7-7-7-7-7-7-7-7-7-7-7-7-7-7-7-7-7-7-| x1
A-7-7-7-7-7-7-7-7-7-7-7-7-7-7-7-7-7-7-7-7-7-7-7-7-7-7-7-7-7-7-7-7-|
E-5-5-5-5-5-5-5-5-5-5-5-5-5-5-5-5-5-5-5-5-5-5-5-5-5-5-5-5-5-5-5-5-|

E---------------------------------|
B---------------------------------|
G---------------------------------|
D-5-5-5-5-5-5-5-5-2-2-2-2-2-2-2-2-|  x1
A-5-5-5-5-5-5-5-5-2-2-2-2-2-2-2-2-|
E-3-3-3-3-3-3-3-3-0-0-0-0-0-0-0-0-|

E------------------|
B------------------|
G----------------5-|
D-7-7-7-7-7-7----5-|
A-7-7-7-7-7-7-5h7--|    x2
E-5-5-5-5-5-5------|

E-----------------------------------------------------------------|
B-----------------------------------------------------------------|
G-----------------------------------------------------------------|
D-7-7-7-7-7-7-7-7-7-7-7-7-7-7-7-7-7-7-7-7-7-7-7-7-7-7-7-7-7-7-7-7-| x1
A-7-7-7-7-7-7-7-7-7-7-7-7-7-7-7-7-7-7-7-7-7-7-7-7-7-7-7-7-7-7-7-7-|
E-5-5-5-5-5-5-5-5-5-5-5-5-5-5-5-5-5-5-5-5-5-5-5-5-5-5-5-5-5-5-5-5-|

E---------------------------------|
B---------------------------------|
G---------------------------------|
D-5-5-5-5-5-5-5-5-2-2-2-2-2-2-2-2-|  x1
A-5-5-5-5-5-5-5-5-2-2-2-2-2-2-2-2-|
E-3-3-3-3-3-3-3-3-0-0-0-0-0-0-0-0-|


E---------------------------------|
B---------------------------------|
G---------------------------------|
D-5-5-5-5-5-5-5-5-2-2-2-2-2-2-2-2-|  x1
A-5-5-5-5-5-5-5-5-2-2-2-2-2-2-2-2-|
E-3-3-3-3-3-3-3-3-0-0-0-0-0-0-0-0-|

E------------------|
B------------------|
G----------------5-|
D-7-7-7-7-7-7----5-|
A-7-7-7-7-7-7-5h7--| x1
E-5-5-5-5-5-5------|

E-----------|
B-----------|
G-----------|
D-7-7-7-7-7-| x1
A-7-7-7-7-7-|
E-5-5-5-5-5-|


Chorus 1:

   E         C       A
E------0---------0---------0---|
B------0---------1---------2---|
G------1---------0-------2-----|
D------2-------2-------2-------|  x3
A----2-------3-------0---------|
E--0---------------------------|

       E         C

E------0---------0-|
B------0---------1-|
G------1---------0-|
D------2-------2---|  x1
A----2-------3-----|
E--0---------------|

E------------------|
B------------------|
G----------------5-|
D-7-7-7-7-7-7----5-|
A-7-7-7-7-7-7-5h7--| x4
E-5-5-5-5-5-5------|

Verse 2:
E-----------------------------------------------------------------|
B-----------------------------------------------------------------|
G-----------------------------------------------------------------|
D-7-7-7-7-7-7-7-7-7-7-7-7-7-7-7-7-7-7-7-7-7-7-7-7-7-7-7-7-7-7-7-7-| x1
A-7-7-7-7-7-7-7-7-7-7-7-7-7-7-7-7-7-7-7-7-7-7-7-7-7-7-7-7-7-7-7-7-|
E-5-5-5-5-5-5-5-5-5-5-5-5-5-5-5-5-5-5-5-5-5-5-5-5-5-5-5-5-5-5-5-5-|

E---------------------------------|
B---------------------------------|
G---------------------------------|
D-5-5-5-5-5-5-5-5-2-2-2-2-2-2-2-2-|  x1
A-5-5-5-5-5-5-5-5-2-2-2-2-2-2-2-2-|
E-3-3-3-3-3-3-3-3-0-0-0-0-0-0-0-0-|

E------------------|
B------------------|
G----------------5-|
D-7-7-7-7-7-7----5-|
A-7-7-7-7-7-7-5h7--|    x2
E-5-5-5-5-5-5------|

E-----------------------------------------------------------------|
B-----------------------------------------------------------------|
G-----------------------------------------------------------------|
D-7-7-7-7-7-7-7-7-7-7-7-7-7-7-7-7-7-7-7-7-7-7-7-7-7-7-7-7-7-7-7-7-| x1
A-7-7-7-7-7-7-7-7-7-7-7-7-7-7-7-7-7-7-7-7-7-7-7-7-7-7-7-7-7-7-7-7-|
E-5-5-5-5-5-5-5-5-5-5-5-5-5-5-5-5-5-5-5-5-5-5-5-5-5-5-5-5-5-5-5-5-|

E---------------------------------|
B---------------------------------|
G---------------------------------|
D-5-5-5-5-5-5-5-5-2-2-2-2-2-2-2-2-|  x1
A-5-5-5-5-5-5-5-5-2-2-2-2-2-2-2-2-|
E-3-3-3-3-3-3-3-3-0-0-0-0-0-0-0-0-|

E------------------|
B------------------|
G----------------5-|
D-7-7-7-7-7-7----5-|
A-7-7-7-7-7-7-5h7--| x2
E-5-5-5-5-5-5------|

E---------------------------------|
B---------------------------------|
G---------------------------------|
D-5-5-5-5-5-5-5-5-2-2-2-2-2-2-2-2-|  x1
A-5-5-5-5-5-5-5-5-2-2-2-2-2-2-2-2-|
E-3-3-3-3-3-3-3-3-0-0-0-0-0-0-0-0-|

E------------------|
B------------------|
G----------------5-|
D-7-7-7-7-7-7----5-|
A-7-7-7-7-7-7-5h7--| x1
E-5-5-5-5-5-5------|

E-----------|
B-----------|
G-----------|
D-7-7-7-7-7-| x1
A-7-7-7-7-7-|
E-5-5-5-5-5-|

Chorus 2:

       E         C         A
E------0---------0---------0---|
B------0---------1---------2---|
G------1---------0-------2-----|
D------2-------2-------2-------|  x7
A----2-------3-------0---------|
E--0---------------------------|


E------0---------0-|
B------0---------1-|
G------1---------0-|
D------2-------2---|  x1
A----2-------3-----|
E--0---------------|

E------------------|
B------------------|
G----------------5-|
D-7-7-7-7-7-7----5-|
A-7-7-7-7-7-7-5h7--| x3
E-5-5-5-5-5-5------|

E-----------|
B-----------|
G-----------|
D-7-7-7-7-7-| x1
A-7-7-7-7-7-|
E-5-5-5-5-5-|            
Submit corrections


        Killin The Planet  lessons Hard to play? Try these video lessons and learn fast Killin The Planet  lessons
        
↑ Back to top | Tablatures and chords for acoustic guitar and electric guitar, ukulele, drums are parodies/interpretations of the original songs. You may use it for private study, scholarship, research or language learning purposes only