» » »

Vines - In The Jungle Tabs

Artists:  A B C D E F G H I J K L M N O P Q R S T U V W X Y Z # 

In The Jungle Tabs

(ver. 2) Click to play this song!
Vines
 Rating:
4/5 (4 votes)

 In The Jungle lessons Tabs too difficult? Try these video lessons and learn fast
 
                Intro/riff 1        
------2--0------2--0------2--0------2--0----------------------x2--------------
----2------0--2------0--2------0--2------0------------------------------------
--0---------0---------0---------0---------0-----------------------------------
                                                                              
Verse 1:

------2--0------2--0------2--0------2--0----------------------x6--------------
----2------0--2------0--2------0--2------0------------------------------------
--0---------0---------0---------0---------0-----------------------------------
          
                                                                    
Bridge/Riff2:                                                           
(Very slow tempo, with some kind of effect, I use Chorus but im not sure)

-----2---------------------2--------------------2----------------7--7---5--5--
-----------1--1--0---------------1--1--0--------------1--1--0----7--7---5--5--
--0-----0-----------3---0-----0-----------3--0-----0----------3--5--5---3--3--


Bridge/Riff3a :
------------0------------0-------------0--------------------------------------
------------0------------0-------------0--------------------------------------
------------1------------1-------------1--------------------------------------
---2--------2---2--------2---2---------2-----x2-and-1/3-----------------------
---2-----2--2---2-----2--2---2-----2---2--------------------------------------
---0-/5b-0--0---0-/5b-0--0---0-/5b-0---0--------------------------------------
   " YEAH         SHE          FELT......"                                    



Chorus/Riff4:
(You're in the jungle, you're in the jung.....)
--------------------------------5-5-/-3-3-------------------------------------
--------------------------------5-5-/-3-3-------------------------------------
--------------------------------6-6-/-4-4-------------------------------------
--2---------2---------2---------7-7-/-5-5-------------x2----------------------
----1-1-0-----1-1-0-----1-1-0---7-7-/-5-5-------------------------------------
-0-0-----3-0-0-----3-0-0-----3--5-5-/-3-3-------------------------------------

                                                                              
Solo (Dont have it tabbed, but improvise on this solo)


Interlude:
(And ill be waiting for a hit yea...)
-------------------------------------------------------9--------------------3-
-4-4-4-4-4-4-4-4-5-6-7-7-7-7-7-7-7-7-8-9-1010101010101010-4-4-4-4-4-4-4-4-4-4-
-4-4-4-4-4-4-4-4-5-6-7-7-7-7-7-7-7-7-8-9-1010101010101010-4-4-4-4-4-4-4-4-4-4-
-2-2-2-2-2-2-2-2-3-4-5-5-5-5-5-5-5-5-6-7-8-8-8-8-8-8-8-8--2-2-2-2-2-2-0-2-0-2-
Palm mute      x2

NO PALM MUTE JUST ROCK N ROLL!!:
-4--4--4-4-5-6-7--7--7-7-8-9-10-10-101010-4--4--4-4-4----x2-------------------
-4--4--4-4-5-6-7--7--7-7-8-9-10-10-101010-4--4--4-4-4-------------------------
-2--2--2-2-3-4-5--5--5-5-6-7-8--8--8-8-8--2--2--2-2-2-------------------------

Solo 2:

-7-7-7-7-7-7-5--5--7-7-7-7-7-7-5--5--1-1-1-1-1-1-----------7-7-7-7-7-7-5--5---
-------------------------------------------------4----------------------------
---------------------------------------------------4--------------------------
                                                                              

-7-7-7-7-7-7-8-10--8p7-8p7--7---5******---------------------------------------
                              ^ Riff 1 enters(x1) 

Verse 2:
Riff 1 x3


                   
Bridge 1:
Riff 2 x1
(Under the oak tree, tin all around me..)
         

Bridge 2:
(lines from the story, you put before me....)

Riff 3b
-----------0------------0-------------0----5--5---3--3------------------------
-----------0------------0-------------0----5--5---3--3------------------------
-----------1------------1-------------1----6--6---4--4------------------------
--2--------2---2--------2---2---------2----7--7---5--5------------------------
--2-----2--2---2-----2--2---2-----2---2----7--7---5--5------------------------
--0-/5b-0--0---0-/5b-0--0---0-/5b-0---0----5--5---3--3------------------------
       
                                                                      
Chorus BUT with Riff 3b


Then comes a tiny riff when the guitar plays Riff 4 one time
("Your never gonna get clean")

Then riff 4 one time then it ends!!

PS:
Mail me if something isnt understood or if something is wrong.

/
HanMeGitarren
            
Submit corrections


        In The Jungle lessons Hard to play? Try these video lessons and learn fast In The Jungle lessons
        
↑ Back to top | Tablatures and chords for acoustic guitar and electric guitar, ukulele, drums are parodies/interpretations of the original songs. You may use it for private study, scholarship, research or language learning purposes only