» » »

Vines - I'm Only Sleeping Tabs

Artists:  A B C D E F G H I J K L M N O P Q R S T U V W X Y Z # 

I'm Only Sleeping Tabs

(ver. 1) Click to play this song!
Vines
 Rating:
4/5 (4 votes)

 I'm Only Sleeping lessons Tabs too difficult? Try these video lessons and learn fast
 
                




               When I wake up early in the morning       lift my head   I'm still yawning
e:-0-------------0-0-0-0-0-0-0-0-0-0-0-0-0------------------3-3----------3---3-----------|
B:---0-----------0-0-0-0-0-0-0-0-0-0-0-0-0--1--1---1-1-1--0-0-0--1-1-1---0---0-----------|
G:-----0---------0-0-0-0-0-0-0-0-0-0-0-0-0--0--0---0-0-0--0-0-0--0-0-0---0---0---0--0----|
D:-------2-------2-2-2-2-2-2-2-2-2-2-2-2-2--2--2---2-2-2--0-0-0--2-2-2---0---0---0--0----|
A:---------2-----2-2-2-2-2-2-2-2-2-2-2-2-2--3--3---3-3-3--0-0-0--3-3-3---0---0---0--0----|
E:-----------0---0-0-0-0-0-0-0-0-0-0-0-0-0----------------3-3-3----------3---3---3--2----|

When I'm in the middle of a dream          Stay in bed   Float upstream
e:-0-0-0-0-0-0-0-0-0-0-0-0-0------------------3-3----------3---3--------------------|
B:-0-0-0-0-0-0-0-0-0-0-0-0-0--1--1---1-1-1--0-0-0--1-1-1---0---0--1-1-1-1-1-1-1-1-1-|
G:-0-0-0-0-0-0-0-0-0-0-0-0-0--0--0---0-0-0--0-0-0--0-0-0---0---0--0-0-0-0-0-0-0-0-0-|
D:-2-2-2-2-2-2-2-2-2-2-2-2-2--2--2---2-2-2--0-0-0--2-2-2---0---0--2-2-2-2-2-2-2-2-2-|
A:-2-2-2-2-2-2-2-2-2-2-2-2-2--3--3---3-3-3--0-0-0--3-3-3---0---0--3-3-3-3-3-3-3-3-3-|
E:-0-0-0-0-0-0-0-0-0-0-0-0-0----------------3-3-3----------3---3--------------------|

  Please don't wake me  no don't shake me   leave me where I am    I'm only sleeping
e:-3-3-3-3-3-3-3-3-3-3---------------------------------------------------------------|
B:-3-3-3-3-3-3-3-3-3-3--1-1-1-1-1-1-1-1-1---3-3-3-3-3-3-3-3-3--1-1-1-1-1-1-1-1-1-1-1-|
G:-0-0-0-0-0-0-0-0-0-0--2-2-2-2-2-2-2-2-2---4-4-4-4-4-4-4-4-4--0-0-0-0-0-0-0-0-0-0-0-|
D:-0-0-0-0-0-0-0-0-0-0--2-2-2-2-2-2-2-2-2---4-4-4-4-4-4-4-4-4--2-2-2-2-2-2-2-2-2-2-2-|
A:-0-0-0-0-0-0-0-0-0-0--0-0-0-0-0-0-0-0-0---2-2-2-2-2-2-2-2-2--3-3-3-3-3-3-3-3-3-3-3-|
E:-3-3-3-3-3-3-3-3-3-3---------------------------------------------------------------|

                
:-----------------------|
:-1--1--1---------------|
:-0--0--0---------------|
:-2--2--2---------------|
:-3--3--3-----------2---|
:------------0---3----3-|

gt1
               Everybody seems to think I'm lazy      I don't mind I think they're crazy
e:-0-------------0-0-0-0-0-0-0-0-0-0-0-0-0------------------3-3----------3---3-----------|
B:---0-----------0-0-0-0-0-0-0-0-0-0-0-0-0--1--1---1-1-1--0-0-0--1-1-1---0---0-----------|
G:-----0---------0-0-0-0-0-0-0-0-0-0-0-0-0--0--0---0-0-0--0-0-0--0-0-0---0---0---0--0----|
D:-------2-------2-2-2-2-2-2-2-2-2-2-2-2-2--2--2---2-2-2--0-0-0--2-2-2---0---0---0--0----|
A:---------2-----2-2-2-2-2-2-2-2-2-2-2-2-2--3--3---3-3-3--0-0-0--3-3-3---0---0---0--0----|
E:-----------0---0-0-0-0-0-0-0-0-0-0-0-0-0----------------3-3-3----------3---3---3--2----|

gt2
:----------------------------|
:----------------------------|
:-0h4--(4)~~~~~~--4/12~~~~~~-|
:----------------------------|
:----------------------------|
:----------------------------|

gt1
Running everywhere at such a speed        'til they find   There's no need
e:-0-0-0-0-0-0-0-0-0-0-0-0-0------------------3-3----------3---3--------------------|
B:-0-0-0-0-0-0-0-0-0-0-0-0-0--1--1---1-1-1--0-0-0--1-1-1---0---0--1-1-1-1-1-1-1-1-1-|
G:-0-0-0-0-0-0-0-0-0-0-0-0-0--0--0---0-0-0--0-0-0--0-0-0---0---0--0-0-0-0-0-0-0-0-0-|
D:-2-2-2-2-2-2-2-2-2-2-2-2-2--2--2---2-2-2--0-0-0--2-2-2---0---0--2-2-2-2-2-2-2-2-2-|
A:-2-2-2-2-2-2-2-2-2-2-2-2-2--3--3---3-3-3--0-0-0--3-3-3---0---0--3-3-3-3-3-3-3-3-3-|
E:-0-0-0-0-0-0-0-0-0-0-0-0-0----------------3-3-3----------3---3--------------------|

gt2
:----------------------------|
:----------------------------|
:-4--(4)/5---12~~~~~~--------|
:----------------------------|
:----------------------------|
:----------------------------|

Please don't spoil my day I'm miles away      and after all    I'm only sleeping
e:-3-3-3-3-3-3-3-3-3-3---------------------------------------------------------------|
B:-3-3-3-3-3-3-3-3-3-3--1-1-1-1-1-1-1-1-1---3-3-3-3-3-3-3-3-3--1-1-1-1-1-1-1-1-1-1-1-|
G:-0-0-0-0-0-0-0-0-0-0--2-2-2-2-2-2-2-2-2---4-4-4-4-4-4-4-4-4--0-0-0-0-0-0-0-0-0-0-0-|
D:-0-0-0-0-0-0-0-0-0-0--2-2-2-2-2-2-2-2-2---4-4-4-4-4-4-4-4-4--2-2-2-2-2-2-2-2-2-2-2-|
A:-0-0-0-0-0-0-0-0-0-0--0-0-0-0-0-0-0-0-0---2-2-2-2-2-2-2-2-2--3-3-3-3-3-3-3-3-3-3-3-|
E:-3-3-3-3-3-3-3-3-3-3---------------------------------------------------------------|

                
:-------------------------0---------|
:-1--1--1-------------------0-------|
:-0--0--0---------------------0-----|
:-2--2--2-----------------------2---|
:-3--3--3-----------2------------2--|
:------------0---3----3-----------0-|

:--------------|
:--------------|
:--------------|
:------------2-|
:---------2----|
:--0---3-------|

  Keeping an eye on the  world going by my window,   taking my time              
:-0-0-0-0-0--0-0--0-0-0------0-0-0-0-0-0--------------0--------------0-0-0-|
:-1-1-1-1-1--1-1--1-1-1----0-0-0-0-0-0-0--1-1-1-1-1---1--------------1-1-1-|
:-2-2-2-2-2--2-2--2-2-2--0-0-0-0-0-0-0-0--2-2-2-2-2---2--------------2-2-2-|
:-3-3-3-3-3--3-3--3-3-3--2-2-2-2-2-2-2-2--2-2-2-2-2---3--------------3-3-3-|
:-0-0-0-0-0--0-0--0-0-0--2-2-2-2-2-2-2-2--0-0-0-0-0---0--------------------|
:------------------------0-0-0-0-0-0-0-0-----------------------------------|

Lying there and staring at the ceiling      Waiting for   a sleepy feeling
e:-0-0-0-0-0-0-0-0-0-0-0-0-0------------------3-3----------3---3--------------------|
B:-0-0-0-0-0-0-0-0-0-0-0-0-0--1--1---1-1-1--0-0-0--1-1-1---0---0--1-1-1-1-1-1-1-1-1-|
G:-0-0-0-0-0-0-0-0-0-0-0-0-0--0--0---0-0-0--0-0-0--0-0-0---0---0--0-0-0-0-0-0-0-0-0-|
D:-2-2-2-2-2-2-2-2-2-2-2-2-2--2--2---2-2-2--0-0-0--2-2-2---0---0--2-2-2-2-2-2-2-2-2-|
A:-2-2-2-2-2-2-2-2-2-2-2-2-2--3--3---3-3-3--0-0-0--3-3-3---0---0--3-3-3-3-3-3-3-3-3-|
E:-0-0-0-0-0-0-0-0-0-0-0-0-0----------------3-3-3----------3---3--------------------|


 solo
:--7-7-7-7-7-7-7-7-7-7-7-8b~~~~------------------------------------------------------------|
:-------------------------------10--8------------------------------------------------------|
:--------------------------------------------------9~~~-9---7----4---7-7/9-9/12-12/14-14/16|
:---------------------------------------------7---------------5----5-----------------------|
:---------------------------------------7--10---10-----------------------------------------|
:------------------------------------------------------------------------------------------|

:-----|
:-----|
:-----|
:-----|
:-----|
:--0--|


Please don't spoil my day I'm miles away      and after all    I'm only sleeping
e:-3-3-3-3-3-3-3-3-3-3---------------------------------------------------------------|
B:-3-3-3-3-3-3-3-3-3-3--1-1-1-1-1-1-1-1-1---3-3-3-3-3-3-3-3-3--1-1-1-1-1-1-1-1-1-1-1-|
G:-0-0-0-0-0-0-0-0-0-0--2-2-2-2-2-2-2-2-2---4-4-4-4-4-4-4-4-4--0-0-0-0-0-0-0-0-0-0-0-|
D:-0-0-0-0-0-0-0-0-0-0--2-2-2-2-2-2-2-2-2---4-4-4-4-4-4-4-4-4--2-2-2-2-2-2-2-2-2-2-2-|
A:-0-0-0-0-0-0-0-0-0-0--0-0-0-0-0-0-0-0-0---2-2-2-2-2-2-2-2-2--3-3-3-3-3-3-3-3-3-3-3-|
E:-3-3-3-3-3-3-3-3-3-3---------------------------------------------------------------|

                
:-------------------------0---------|
:-1--1--1-------------------0-------|
:-0--0--0---------------------0-----|
:-2--2--2-----------------------2---|
:-3--3--3-----------2------------2--|
:------------0---3----3-----------0-|

:--------------|
:--------------|
:--------------|
:------------2-|
:---------2----|
:--0---3-------|

  Keeping an eye on the  world going by my window,   taking my time              
:-0-0-0-0-0--0-0--0-0-0------0-0-0-0-0-0--------------0--------------0-0-0-|
:-1-1-1-1-1--1-1--1-1-1----0-0-0-0-0-0-0--1-1-1-1-1---1--------------1-1-1-|
:-2-2-2-2-2--2-2--2-2-2--0-0-0-0-0-0-0-0--2-2-2-2-2---2--------------2-2-2-|
:-3-3-3-3-3--3-3--3-3-3--2-2-2-2-2-2-2-2--2-2-2-2-2---3--------------3-3-3-|
:-0-0-0-0-0--0-0--0-0-0--2-2-2-2-2-2-2-2--0-0-0-0-0---0--------------------|
:------------------------0-0-0-0-0-0-0-0-----------------------------------|

  When I wake up early in the morning       lift my head   I'm still yawning
e:-0-0-0-0-0-0-0-0-0-0-0-0-0------------------3-3----------3---3-----------|
B:-0-0-0-0-0-0-0-0-0-0-0-0-0--1--1---1-1-1--0-0-0--1-1-1---0---0-----------|
G:-0-0-0-0-0-0-0-0-0-0-0-0-0--0--0---0-0-0--0-0-0--0-0-0---0---0---0--0----|
D:-2-2-2-2-2-2-2-2-2-2-2-2-2--2--2---2-2-2--0-0-0--2-2-2---0---0---0--0----|
A:-2-2-2-2-2-2-2-2-2-2-2-2-2--3--3---3-3-3--0-0-0--3-3-3---0---0---0--0----|
E:-0-0-0-0-0-0-0-0-0-0-0-0-0----------------3-3-3----------3---3---3--2----|

:-0---------|
:---0-------|
:-----0-----|
:-------2---|
:--------2--|
:---------0-|

When I'm in the middle of a dream          Stay in bed   Float upstream
e:-0-0-0-0-0-0-0-0-0-0-0-0-0------------------3-3----------3---3--------------------|
B:-0-0-0-0-0-0-0-0-0-0-0-0-0--1--1---1-1-1--0-0-0--1-1-1---0---0--1-1-1-1-1-1-1-1-1-|
G:-0-0-0-0-0-0-0-0-0-0-0-0-0--0--0---0-0-0--0-0-0--0-0-0---0---0--0-0-0-0-0-0-0-0-0-|
D:-2-2-2-2-2-2-2-2-2-2-2-2-2--2--2---2-2-2--0-0-0--2-2-2---0---0--2-2-2-2-2-2-2-2-2-|
A:-2-2-2-2-2-2-2-2-2-2-2-2-2--3--3---3-3-3--0-0-0--3-3-3---0---0--3-3-3-3-3-3-3-3-3-|
E:-0-0-0-0-0-0-0-0-0-0-0-0-0----------------3-3-3----------3---3--------------------|

gt1
:-0---------|
:---0-------|
:-----0-----|
:-------2---|
:--------2--|
:---------0-|

gt2
e:-0-0-0-0-0-0-0-0-0-0-0-0-0-|
B:-0-0-0-0-0-0-0-0-0-0-0-0-0-|
G:-0-0-0-0-0-0-0-0-0-0-0-0-0-|
D:-2-2-2-2-2-2-2-2-2-2-2-2-2-|
A:-2-2-2-2-2-2-2-2-2-2-2-2-2-|
E:-0-0-0-0-0-0-0-0-0-0-0-0-0-|

gt1
:-0---------|
:---0-------|
:-----0-----|
:-------2---|
:--------2--|
:---------0-|

gt2
e:-0-0-0-0-0-0-0-0-0-0-0-0-0-|
B:-0-0-0-0-0-0-0-0-0-0-0-0-0-|
G:-0-0-0-0-0-0-0-0-0-0-0-0-0-|
D:-2-2-2-2-2-2-2-2-2-2-2-2-2-|
A:-2-2-2-2-2-2-2-2-2-2-2-2-2-|
E:-0-0-0-0-0-0-0-0-0-0-0-0-0-|

gt3
:-------------------------------|
:-------------------------------|
:-----------------------------0-|
:-2--0--2-----0--2-----0----0---|
:----------2--------2-----2-----|
:-------------------------------|

gt1
:-0---------|
:---0-------|
:-----0-----|
:-------2---|
:--------2--|
:---------0-|

gt2
e:-0-0-0-0-0-0-0-0-0-0-0-0-0-|
B:-0-0-0-0-0-0-0-0-0-0-0-0-0-|
G:-0-0-0-0-0-0-0-0-0-0-0-0-0-|
D:-2-2-2-2-2-2-2-2-2-2-2-2-2-|
A:-2-2-2-2-2-2-2-2-2-2-2-2-2-|
E:-0-0-0-0-0-0-0-0-0-0-0-0-0-|

gt3
:-------------------------------|
:-------------------------------|
:-----------------------------0-|
:-2--0--2-----0--2-----0----0---|
:----------2--------2-----2-----|
:-------------------------------|

gt1
:-0---------|
:---0-------|
:-----0-----|
:-------2---|
:--------2--|
:---------0-|

gt2
e:-0-0-0-0-0-0-0-0-0-0-0-0-0-|
B:-0-0-0-0-0-0-0-0-0-0-0-0-0-|
G:-0-0-0-0-0-0-0-0-0-0-0-0-0-|
D:-2-2-2-2-2-2-2-2-2-2-2-2-2-|
A:-2-2-2-2-2-2-2-2-2-2-2-2-2-|
E:-0-0-0-0-0-0-0-0-0-0-0-0-0-|

gt3
:-------------------------------|
:-------------------------------|
:-----------------------------0-|
:-2--0--2-----0--2-----0----0---|
:----------2--------2-----2-----|
:-------------------------------|
            
Submit corrections


        I'm Only Sleeping lessons Hard to play? Try these video lessons and learn fast I'm Only Sleeping lessons
        
↑ Back to top | Tablatures and chords for acoustic guitar and electric guitar, ukulele, drums are parodies/interpretations of the original songs. You may use it for private study, scholarship, research or language learning purposes only