» » »

Vines - Homesick Tabs

Artists:  A B C D E F G H I J K L M N O P Q R S T U V W X Y Z # 

Homesick Tabs

(ver. 2) Click to play this song!
Vines
 Rating:
4/5 (4 votes)

 Homesick lessons Tabs too difficult? Try these video lessons and learn fast
 
                Band - The Vines
Song - “Homesick”
Album - Highly Evolved

Intro - Piano part (It doesn’t sound as good on a guitar. Trust me.)
    F
E|-----------------------------------|
B|--1---1---1---1---1---1---1---1----|
G|--2---2---2---2---2---2---2---2----|
D|----3---3---3---3---3---3---3---3--|

    C                            G
E|--0---0---0---0---0---0---0--------|
B|--1---1---1---1---1---1---1----3---|
G|----0---0---0---0---0---0---0--4---|
D|---------------------------------5-|


The guitar comes in strumming a G chord after “Where I should go”. Then
at “Nothing’s gonna save you” -

     Dm
E|---1----1----1-1-1-1-1---1-1-1-1-----1----1----1-1-1-1-1---1-1-1-1---|
B|---3----3----3-3-3-3-3---3-3-3-3-----3----3----3-3-3-3-3---3-3-3-3---|
G|---2----2----2-2-2-2-2---2-2-2-2-----2----2----2-2-2-2-2---2-2-2-2---|
D|---0----0----0-0-0-0-0---0-0-0-0-----0----0----0-0-0-0-0---0-0-0-0---|
A|---------------------------------------------------------------------|
E|---------------------------------------------------------------------|
     1 +  2   +    3   +   4      +    1 +  2   +    3   +   4    (Beat)

     C
E|---0----0----0-0-0-0-0---0-0-0-0-----0----0----0-0-0-0-0---0-0-0-0---|
B|---1----1----1-1-1-1-1---1-1-1-1-----1----1----1-1-1-1-1---1-1-1-1---|
G|---0----0----0-0-0-0-0---0-0-0-0-----0----0----0-0-0-0-0---0-0-0-0---|
D|---2----2----2-2-2-2-2---2-2-2-2-----2----2----2-2-2-2-2---2-2-2-2---|
A|---3----3----3-3-3-3-3---3-3-3-3-----3----3----3-3-3-3-3---3-3-3-3---|
E|---------------------------------------------------------------------|


Second verse (“Went on my own...”) -

     F
E|---1----1----1-1-1-1-1---1-1-1-1-----1----1----1-1-1-1-1---1-1-1-1---|
B|---1----1----1-1-1-1-1---1-1-1-1-----1----1----1-1-1-1-1---1-1-1-1---|
G|---2----2----2-2-2-2-2---2-2-2-2-----2----2----2-2-2-2-2---2-2-2-2---|
D|---3----3----3-3-3-3-3---3-3-3-3-----3----3----3-3-3-3-3---3-3-3-3---|
A|---3----3----3-3-3-3-3---3-3-3-3-----3----3----3-3-3-3-3---3-3-3-3---|
E|---1----1----1-1-1-1-1---1-1-1-1-----1----1----1-1-1-1-1---1-1-1-1---|

     C                                                       G
E|---0----0----0-0-0-0-0---0-0-0-0-----0----0----0-0-0-0-0---3-3-3-3---|
B|---1----1----1-1-1-1-1---1-1-1-1-----1----1----1-1-1-1-1---3-3-3-3---|
G|---0----0----0-0-0-0-0---0-0-0-0-----0----0----0-0-0-0-0---4-4-4-4---|
D|---2----2----2-2-2-2-2---2-2-2-2-----2----2----2-2-2-2-2---5-5-5-5---|
A|---3----3----3-3-3-3-3---3-3-3-3-----3----3----3-3-3-3-3---5-5-5-5---|
E|-----------------------------------------------------------3-3-3-3---|

You don’t have to change to a G chord for the last part, that’s just
what the piano does. I think it sounds better if you keep going with C,
then switch straight back to F.


Play this once before “I can see the...” and repeat during that verse.
G|------0-------0-------0-------0----|
D|----2---2---3---3---2---2---3---3--|
A|--3-------3-------3-------3--------|

“Making time for everyone...”
B|--------1-------1---------------1--|
G|------0-------0-------0-------0----|
D|----2-------3-------2---2---3------|
A|--3-------3-------3-------3--------|

“Blue and green with eyes between...”
B|--------1-------1-------1-------1--|
G|------0-------0-------0-------0----|
D|----2-------3-------2-------3------|
A|--3-------3-------3-------3--------|

“You and me are never free...”
B|--------1-------1---------------1--|
G|------0-------0-------0-------0----|
D|----2-------3-------2---2---3------|
A|--3-------3-------3-------3--------|


At “But it really doesn’t matter...” -

     F                                 C
E|---1----1----1-1-1-1-1---1-1-1-1-----0----0----0-0-0-0-0---0-0-0-0---|
B|---1----1----1-1-1-1-1---1-1-1-1-----1----1----1-1-1-1-1---1-1-1-1---|
G|---2----2----2-2-2-2-2---2-2-2-2-----0----0----0-0-0-0-0---0-0-0-0---|
D|---3----3----3-3-3-3-3---3-3-3-3-----2----2----2-2-2-2-2---2-2-2-2---|
A|---3----3----3-3-3-3-3---3-3-3-3-----3----3----3-3-3-3-3---3-3-3-3---|
E|---1----1----1-1-1-1-1---1-1-1-1-------------------------------------|

“I’ll do it till I get it right...”
     F                                 G
E|---1----1----1-1-1-1-1---1-1-1-1-----3----3----3-3-3-3-3---3-3-3-3---|
B|---1----1----1-1-1-1-1---1-1-1-1-----3----3----3-3-3-3-3---3-3-3-3---|
G|---2----2----2-2-2-2-2---2-2-2-2-----4----4----4-4-4-4-4---4-4-4-4---|
D|---3----3----3-3-3-3-3---3-3-3-3-----5----5----5-5-5-5-5---5-5-5-5---|
A|---3----3----3-3-3-3-3---3-3-3-3-----5----5----5-5-5-5-5---5-5-5-5---|
E|---1----1----1-1-1-1-1---1-1-1-1-----3----3----3-3-3-3-3---3-3-3-3---|

Note - the F and G chords can also be played open (no barre)
without the two bottom strings:

   	    F              G
	E |-1-|          |-3-|
	B |-1-|          |-3-|
	G |-2-|          |-4-|
	D |-3-|          |-5-|
	A |---|          |---|
	E |---|          |---|
            
Submit corrections


        Homesick lessons Hard to play? Try these video lessons and learn fast Homesick lessons
        
↑ Back to top | Tablatures and chords for acoustic guitar and electric guitar, ukulele, drums are parodies/interpretations of the original songs. You may use it for private study, scholarship, research or language learning purposes only