» » »

Vines - Homesick Tabs

Artists:  A B C D E F G H I J K L M N O P Q R S T U V W X Y Z # 

Homesick Tabs

(ver. 1) Click to play this song!
Vines
 Rating:
4/5 (4 votes)

 Homesick lessons Tabs too difficult? Try these video lessons and learn fast
 
                

Im almost 100% sure this is right




It Just Starts out with piano playing F C and G triads

If you arnt to good at readin tab this might look complicated so to make it
easy these chords are just C G and F majorand theres a Dmin in there somewhere




This is The intro and the verse before chorus
e|------0---0---0--0-0-0-0-0--3--1---1---1--1-1-1-1-1-1|
B|------1---1---1--1-1-1-1-1--3--3---3---3--3-3-3-3-3-3|
G|------0---0---0--0-0-0-0-0--0--2---2---2--2-2-2-2-2-2|
D|------2---2---2--2-2-2-2-2--0--0---0---0--0-0-0-0-0-0|
A|------3---3---3--3-3-3-3-3--2------------------------|
E|------x---x---x--x-x-x-x-x--3------------------------|
                           x2                          x2


e|------0---0---0--0-0-0-0-0--3--1---1---1--1-1-1-1-1-1|Just repeat this till
B|------1---1---1--1-1-1-1-1--3--1---1---1--1-1-1-1-1-1|the chorus comes up
G|------0---0---0--0-0-0-0-0--0--2---2---2--2-2-2-2-2-2|
D|------2---2---2--2-2-2-2-2--0--3---3---3--3-3-3-3-3-3|
A|------3---3---3--3-3-3-3-3--2--3---3---3--3-3-3-3-3-3|
E|------x---x---x--x-x-x-x-x--3--1---1---1--1-1-1-1-1-1|


This just repeats over and over again then he says nothings going to save you out
there and this starts


e|-----------------------------------------------------|X4
B|-----------------------------------------------------|
G|--------0-----------0---------0--------0-------------|
D|------2---2-------3---3-----2---2----3---3-----------|
A|----3-------3---3---------3--------3-----------------|
E|-----------------------------------------------------|

And Then

e|-----------------------------------------------------|
B|---------1----------1---------1---------1------------|
G|-------0----------0---------0---------0--------------|
D|-----2----------3---------2---------3----------------|
A|---3----------3---------3---------3------------------|
E|-----------------------------------------------------|

When he says but it really doesnt matter start the strumming again

Then The solo


e|-----------------------------------------------------------|
B|-----------------------------------------------------------|
G|---5---5-7-slide-9-7-5---5-7-slide-9-7-5-------------------|
D|-----7-----------------7------------------7--5--3p2h3p2h3p2|
A|-----------------------------------------------------------|
E|-----------------------------------------------------------|

e|-----------------------------------------------------------|
B|---------------------------------------------------------3-|
G|-----5---5-7-slide-9-7-5---7-9p7h9p7-slide-5--2--5--2-5----|
A|-------7-----------------7---------------------------------|
D|-5-3-------------------------------------------------------|
E|-----------------------------------------------------------|

e|--------------------------------------------------|
B|-4bend--------------------------------------------|
G|-------5-2-0--------------------------------------|
D|--------------------------------------------------|
A|--------------------------------------------------|
E|--------------------------------------------------|

e|------0---0---0--0-0-0-0-0--3--1---1---1--1-1-1-1-1-1|
B|------1---1---1--1-1-1-1-1--3--3---3---3--3-3-3-3-3-3|
G|------0---0---0--0-0-0-0-0--0--2---2---2--2-2-2-2-2-2|
D|------2---2---2--2-2-2-2-2--0--0---0---0--0-0-0-0-0-0|
A|------3---3---3--3-3-3-3-3--2------------------------|
E|------x---x---x--x-x-x-x-x--3------------------------|
                           x2                          x2


e|------0---0---0--0-0-0-0-0--3--1---1---1--1-1-1-1-1-1|
B|------1---1---1--1-1-1-1-1--3--1---1---1--1-1-1-1-1-1|
G|------0---0---0--0-0-0-0-0--0--2---2---2--2-2-2-2-2-2|
D|------2---2---2--2-2-2-2-2--0--3---3---3--3-3-3-3-3-3|
A|------3---3---3--3-3-3-3-3--2--3---3---3--3-3-3-3-3-3|
E|------x---x---x--x-x-x-x-x--3--1---1---1--1-1-1-1-1-1|



Then just start the stumming part again 

Its sounds like Craig is playing little peices from the solo in the last chorus
but its hard to figure out them all but im pretty sure almost any notes from the 
solo will work so experiment!


Im Not 100% sure about the ending but I do know for sure its just an Fmaj
bar chord being picked.For those of you that dont know an Fmaj bar chord is

   FMaj
e|--1--|
B|--1--|
G|--2--|
D|--3--|
A|--3--|
E|--1--|
            
Submit corrections


        Homesick lessons Hard to play? Try these video lessons and learn fast Homesick lessons
        
↑ Back to top | Tablatures and chords for acoustic guitar and electric guitar, ukulele, drums are parodies/interpretations of the original songs. You may use it for private study, scholarship, research or language learning purposes only